Loading...
Cky logo

Rio Bravo Cky

  • 0
  • Share
  • Transposing
    0
  • Font Size
By Deron Miller
From Volume 1
Tab by John Houx

Tuning: 1 Step Down (Low to High: D G C F A D)

Intro
---------------------------------------------------------------------------------
---------------------------------------------------------------------------------
---------------------------------------------------------------------------------
---8---8---8-----8-8---8---8---8-----8-8---8---8---8-----8-8-----------------8-8-
---7---7---7-----7-7---7---7---7-----7-7---7---7---7-----7-7-----------------7-7-
-0---0---0-----------0---0---0-----------0---0---0-----------0---0---0-----------

Intro 2
-----------------------------------------------------------------
-----------------------------------------------------------------
-----------------------------------------------------------------
---8---9-8-7-------------5---------------------------------------
---7-----------7---5-6-7-------------9-8-7-------------5---------
-0---0-------------------------0---0---------0---5-6-7---7-6-5-3-

--------------------------------------------------------------
--------------------------------------------------------------
--------------------------------------------------------------
----9-8-7-------------5---------------------------------------
------------7---5-6-7-------------9-8-7-------------5---------
-0--------------------------0---0---------0---5-6-7---7-6-5-3-

---------------------------------------------------
---------------------------------------------------
---------------------------------------------------
-9-8-7-------------5-------------------------------
---------7---5-6-7-------------9-8-7-------------5-
-------------------------0---0---------0---5-6-7---

----------------------------------------------------------------------------------------
----------------------------------------------------------------------------------------
----------------------------------------------------------------------------------------
----------------5---------------5---------------------------------------------5---------
----------5-6-7-----------5-6-7-----------9-8-7-------------5-----------5-6-7-----------
-7-6-5-3----------7-6-5-3---------0---0-----------0---5-6-7----7-6-5-3----------7-6-5-3-

Verse 12x
---------------------
---------------------
---------------------
---8---8---8-----8-8-
---7---7---7-----7-7-
-0---0---0-----------

I've seen it done like
The way the dogs do
I'll think it over
We're standing into
Your phony life but now it's all dry
Can't take it you will see
Not more than others
Your phony li-hi-hi-ife
Like I don't hear them, but I'll tell you something else
When we get to the desert it's out out OUT!

Chorus 4x
-------------------------------------------------------------
-------------------------------------------------------------
-------------------------------------------------------------
---9-8-7-------------5---------------------------------------
-----------7---5-6-7-------------9-8-7-------------5---------
-0-------------------------0---0---------0---5-6-7---7-6-5-3-

What we left in the past
It tears me up

Alt. Verse
-------------------------------------------------
-------------------------------------------------
-------------------------------------------------
-------------------------------------------------
-7----------------------7----------------5-5---5-
-------7--10-6-----5--3-0----7--10-6-----3-3---3-

Pulled into a truck stop
My luck is over
The plan is failing
I think not!

Bridge
------------------------------------------------------------------------------------------
------------------------------------------------------------------------------------------
------------------------------------------------------------------------------------------
------------------------------------------------------------------------------------------
--------------9---9-8-7-------------5---9---9-8-7-----------5-----9---9-8-7-------------5-
-0----------------------0---5-6-7-----0-----------0---5-6-7-----0-----------0---5-6-7-----

--------------------------------
--------------------------------
--------------------------------
--------------------11--11-10-9-
-----9---9-8-7-------9---9--8-7-
-0---------------0--------------

Chorus 4x with lyrics

What we left in the past
It tears me up

Verse 8x with lyrics

It's not what you're used to
In the middle of nowhere
I'm an old man
I love to wander distantly
Your phony life and now it's all dry
If you think that I had myself controlled
Alt. Verse (with Verse)
That's a lie

Outro
---
---
---
-2-
-2-
-0-

© 2001 CKY and John Houx

Log In to leave a comment

After registration we will return you to the same place
Comments
face-with-monocle
If you wait a bit, some comments may appear here...

Shhh...