Loading...
Cky logo

Inhuman Creation Station Cky

  • 0
  • Share
  • Transposing
    0
  • Font Size
CkY Inhuman creation station
If you dont like it eat my nuts

Drop d tuning

INTRO
D-------------------------------------------------------------------------
A-------------------------------------------------------------------------
F-------------------------------------------------------------------------
C-----5-7------------------4X---------------------------------------------
G--7-----5----------------------------------------------------------------
D-----------7-5-000-000---------------------------------------------------

D-------------------------------------------------------------------------
A-------------------------------------------------------------------------
F-------------------------------------------------------------------------
C-----4-5p4-2p0-----9--7-5-4h5--------------------------------------------
G--5-------------2--------------------------------------------------------
D-------------------------------------------------------------------------

D-------------------------------------------------------------------------
A-------------------------------------------------------------------------
F------7h11-12-----------8x--------------------7h11--7h11-----------------
C--7h9-------------------------------------7h9----------------------------
G-------------------------------------------------------------------------
D--------------00-000-----------------------------------------------------

D-------------------------------------------------------------------------
A-------------------------------------------------------------------------
F--5-5-5-5-5-5-5-5-5-5-5-5-5-5-5-5--9-9-9-9-9-9-9-9-9-9-9-9-9-9-9-9-------
C--5-5-5-5-5-5-5-5-5-5-5-5-5-5-5-5--9-9-9-9-9-9-9-9-9-9-9-9-9-9-9-9-------
G--3-3-3-3-3-3-3-3-3-3-3-3-3-3-3-3--7-7-7-7-7-7-7-7-7-7-7-7-7-7-7-7-------
D-------------------------------------------------------------------------

Then
D-------------------------------------------------------------------------
A-------------------------------------------------------------------------
F-------------------------------------------------------------------------
C-----------------------------------------------------------------7-------
G--3-3-3-3-3-3-3-3-3-3-3-3-3-3-3-3-7-7-7-7-7-7-7-7-7-7-7-7---5--5---------
D----------------------------------0-0-0-0-0-0-0-0-0-0-0-0-3--------------

Little solo thing with wierd effect?

D-------------------------------------------------------------------------
A-------------------------------------------------------------------------
F-------------------------------------------------------------------------
C--7-7---5-5----7-7-9-5-5---5-5-7-7-5-------------------7-----------------
G-------------7-------------7------------7-5-7-7----5---------------------
D-------------------------------------------------------------------------

Listen to the song and you can figure it out

Log In to leave a comment

After registration we will return you to the same place
Comments
face-with-monocle
If you wait a bit, some comments may appear here...

Shhh...