Loading...
Cky logo

Escape From Hellview Cky

  • 0
  • Share
  • Transposing
    0
  • Font Size
Artist:CKY
Title:Escape from hellview
Album:infiltrate destroy rebuild

Key: x= how many times you play that part

Intro:
-------------------------------------------------------------------------
-------------------------------------------------------------------------
------------------------------------------------------------------------- x3
-------------------------------------------------------------------------
-----4---------4-5----------2--------4-------------------------4---------
-2-2----2-2-2-------2-2-5-4----5-4-5---0-0-2-0-0-0-2-0-0-0-2-2---2-------

Verse:

-------------------------------------------------------------------------
-------------------------------------------------------------------------
-------------------------------------------------------------------------x2
--0-0-0-0-0-0-0-0-0-0-0-0-0-0-0-0-2-2-2-2-2-2-2-2-1-1-1-1-1-1-1-1--------
--0-0-0-0-0-0-0-0-0-0-0-0-0-0-0-0-2-2-2-2-2-2-2-2-1-1-1-1-1-1-1-1--------
--0-0-0-0-0-0-0-0-0-0-0-0-0-0-0-0-2-2-2-2-2-2-2-2-1-1-1-1-1-1-1-1--------

Intro: (Again)
-------------------------------------------------------------------------
-------------------------------------------------------------------------
------------------------------------------------------------------------- x2
-------------------------------------------------------------------------
-----4---------4-5----------2--------4-------------------------4---------
-2-2----2-2-2-------2-2-5-4----5-4-5---0-0-2-0-0-0-2-0-0-0-2-2---2-------

Verse:

-------------------------------------------------------------------------
-------------------------------------------------------------------------
-------------------------------------------------------------------------x2
--0-0-0-0-0-0-0-0-0-0-0-0-0-0-0-0-2-2-2-2-2-2-2-2-1-1-1-1-1-1-1-1--------
--0-0-0-0-0-0-0-0-0-0-0-0-0-0-0-0-2-2-2-2-2-2-2-2-1-1-1-1-1-1-1-1--------
--0-0-0-0-0-0-0-0-0-0-0-0-0-0-0-0-2-2-2-2-2-2-2-2-1-1-1-1-1-1-1-1--------

Intro a third time
-------------------------------------------------------------------------
-------------------------------------------------------------------------
------------------------------------------------------------------------- x4
-------------------------------------------------------------------------
-----4---------4-5----------2--------4-------------------------4---------
-2-2----2-2-2-------2-2-5-4----5-4-5---0-0-2-0-0-0-2-0-0-0-2-2---2-------

Solo type part:

-------------------------------------------------------------------------
-------------------------------------------------------------------------
-------------------------------------------------------------------------
-------------------------------------------------------------------------
-----7-------7-8---------5------------7-------7-8---------5--------------
-5-5---5-5-5-----5-5-8-7---8-7-8--5-5---5-5-5-----5-5-8-7---8-7----------

Verse:
-------------------------------------------------------------------------
-------------------------------------------------------------------------
-------------------------------------------------------------------------x2
--0-0-0-0-0-0-0-0-0-0-0-0-0-0-0-0-2-2-2-2-2-2-2-2-1-1-1-1-1-1-1-1--------
--0-0-0-0-0-0-0-0-0-0-0-0-0-0-0-0-2-2-2-2-2-2-2-2-1-1-1-1-1-1-1-1--------
--0-0-0-0-0-0-0-0-0-0-0-0-0-0-0-0-2-2-2-2-2-2-2-2-1-1-1-1-1-1-1-1--------

-------------------------------------------------------------------------
-------------------------------------------------------------------------
------------------------------------------------------------------------- x4
-------------------------------------------------------------------------
-----4---------4-5----------2--------4-------------------------4---------
-2-2----2-2-2-------2-2-5-4----5-4-5---0-0-2-0-0-0-2-0-0-0-2-2---2-------

And i will

---------------
---------------
--------------- ok theres my tab on escape from hellview Enjoy!
-4-------------
-4-------------
-2-------------

Log In to leave a comment

After registration we will return you to the same place
Comments
face-with-monocle
If you wait a bit, some comments may appear here...

Shhh...