Cinderella logo

Nobody's Fool Cinderella

  • 0
  • Share
  • Transposing
    0
  • Font Size
Cinderella – Nobody's Fool
Intro:
Gtr I
E||------0-------1---|-----0-------3---|-----0-------1---|---------------------||
B||о---1---1---3---3-|---1---1---3---3-|---1---1---3---3-|-------------3------о||
G||------------------|-----------------|-----------------|---0---0---2---------||
D||------------------|-----------------|-----------------|-----0---0-----------||
A||о-0-------0-------|-0-------2-------|-0-------0-------|-3-------------2-3--о||
E||------------------|-----------------|-----------------|---------------------||

Verse 1:
|-----0-------1---|-----0-------3---|-----0-------1---|--------------------|
|---1---1---3---3-|---1---1---3---3-|---1---1---3---3-|-------------3------|
|-----------------|-----------------|-----------------|---0---0---2--------|
|-----------------|-----------------|-----------------|-----0---0----------|
|-0-------0-------|-0-------2-------|-0-------0-------|-3-------------2-3--|
|-----------------|-----------------|-----------------|--------------------|

: C5 D5
|-----0-------1---|-----0-------3---|-----0-------1---|--------------------||
|---1---1---3---3-|---1---0---3---3-|---1---1---3---3-|-------------3------||
|-----------------|-----------------|-----------------|---0---0---2--------||
|-----------------|-----------------|-----------------|-----0---0----------||
|-0-------0-------|-0-------2-------|-0-------0-------|-3-------------2-3--||
|-----------------|-----------------|-----------------|--------------------||

Chorus:
A5 F5 G5 C5 G5 A5 F5 G5 C5 G5
|-----0-----------|-------------------|-----0-----------|-------------------||
|---1---1---1---1-|------3----1-------|---1---1---1---1-|------3----1-------||
|-------------0---|---4----4----0---0-|-------------0---|---4----4----0---0-||
|-----------------|---------------3---|-----------------|---------------3---||
|-0---------------|-----------3-------|-0---------------|-----------3-------||
|---------1-------|-3-----------------|---------1-------|-3-----------------||

Gtr IV:
|-------0--------1---|------0--------3---|--------0------------1---|
|-----1---1----3---3-|----1---1----3---3-|-----1-----1-------3---3-|
|--------------------|-------------------|-------------------------|
|--------------------|-------------------|-------------------------|
|--0--------0--------|-0--------2--------|-0-------------0---------|
|--------------------|-------------------|-------------------------|
|
| Gtr III
|--------------------|-------------------|-------------------------|
|-10-------8---------|-------------------|-------------------------|
|--------------------|-9-------7-------|-4s5---(5)-5-5-5s7---9-----|
|--------------------|-------------------|-------------------------|
|--------------------|-------------------|-------------------------|
|--------------------|-------------------|-------------------------|

|-----------------------------------------||
|-----------------------------3-----------||
|-----------0-------0-----2---------------||
|---------------0-----0-------------------||
|--3----------------------------------2-3-||
|-----------------------------------------||
|
|-----------------------------------------||
|-----------------------------------------||
|-10-9h10p9-7-9-7-5-7-4-5-4-5-7-5h7p5-4---||
|---------------------------------------5-||
|-----------------------------------------||
|-----------------------------------------||

Verse 2:
|------0--------1---|-----0-------3---|
|---1-----1---3---3-|---1---1---3---3-|
|-------------------|-----------------|
|-------------------|-----------------|
|-0---------0-------|-0-------2-------|
|-------------------|-----------------|
|
|-------------------|-----------------|
|-------------------|-----------------|
|-------------------|-----------------|
|-5s7-(7)-----------|-----------------|
|-------------------|-----------------|
|-------------------|-----------------|

C5 D5 A5
|-----0-------1---|-------------------|-----0-------1---|-----0-------3----|
|---1---1---3---3-|-------------3-----|---1---1---3---3-|---1---1---3---3--|
|-----------------|---0---0---2-------|-----------------|------------------|
|-----------------|-----0---0---------|-----------------|------------------|
|-0-------0-------|-3-------------2-3-|-0-------0-------|-0-------2--------|
|-----------------|-------------------|-----------------|------------------|

C5 D5 G
|-----0-------1---|-----------------|
|---1---1---3---3-|-------------3---|
|-----------------|---0---0---2---2-|
|-----------------|-----0---0-------|
|-0-------0-------|-3---------------|
|-----------------|-----------------|

Chorus:
A5 F5 G5 C5 G5
||-----0---------1---|-----------------------||
||о--1---1-----1---1-|--------3-----1-------о|| x4
||---------2s3-------|-----4----4-4---0---0--||
||-------------------|-3s5--------------3----||
||о------------------|----------------------о||
||-------------------|-----------------------||

A5
|-----0-------1---|-----0-------3---|-----0-------1---||---------||
|---1---1---3---3-|---1---1---3---3-|---1---1---3---3-||---------||
|-----------------|-----------------|-----------------||---------||
|-----------------|-----------------|-----------------||---------||
|-0-------0-------|-0-------2-------|-0-------0-------||-0-2-3-5-||
|-----------------|-----------------|-----------------||---------||

PM| PM| PM| PM| PM| PM| PM| PM|
|-------------------------|-------------------------|
|-------------------------|-------------------------|
|-------------------------|-------------------------|
|-6-----6-----4-----4-----|-4-----4-----5-----5-----|
|-7-----7-----5-----5-----|-5-----5-----7-----7-----|
|-0-x-x-0-x-x-0-x-x-0-x-x-|-0-x-x-0-x-x-0-x-x-0-x-x-|
|
| Gtr III:
|-------------------------|-------------------------|
|-------------------------|-------------------------|
|-------------------------|-------------------------|
|-------------------------|-------------------------|
|-------------------------|-------------------------|
|-------------------------|-------------------------|

PM| PM| PM| PM|
|-------------------------------|
|-------------------------------|
|-------------------------------|
|-6--------6-------4-----4------|
|-7--------7-------5-----5------|
|-0---x-x--0--x-x--0-x-x-0-x-x--|
|
|-------------------------------|
|-8s9-----(9)-----10------------|
|-------------------------------|
|-------------------------------|
|-------------------------------|
|-------------------------------|

Guitar sоlоs I & II:
PM| PM| PM| PM|
|----------------------------|----------||--------0------------1-------|
|----------------------------|----------||-----1-----1-----3-------3---|
|----------------------------|-2--------||-----------------------------|
|--4-----4-------5-----5-----|-2--------||-----------------------------|
|--5-----5-------7-----7-----|-0--------||-0-----------0---------------|
|--0-x-x-0--x-x--0-x-x-0-x-x-|----------||-----------------------------|
|
|----------------------------|----------||-----------------------------|
|-15-------13---12-----------|----------||-----------------------------|
|----------------------------|----------||-------------------4h5p4-----|
|----------------------------|-7--------||-5h7---(7)---7p5---------7-5-|
|----------------------------|-7--------||-----------------7-----------|
|----------------------------|-5--------||-----------------------------|

|-------0-----------------3------|--------------------0--------------------------1-------|
|-----1---------1------3-----3---|----------------1------1------------------3--------3---|
|--------------------------------|-------------------------------------------------------|
|--------------------------------|-------------------------------------------------------|
|-0-----------------2------------|--------0-------------------------0--------------------|
|--------------------------------|-------------------------------------------------------|
|
| ~~~~~~~~~
|--------------------------------|-------------------------------------------------------|
|--------------------------------|-------------------------------------------------------|
|---------7b9==(7)r(7)---(7)-9-9-|-9b12==(9)-(9)r(9)-(9)-9-9-9b12==(9)r(9)-(9)-7-9p7s5-7p|
|-5s7----------------------------|-------------------------------------------------------|
|--------------------------------|-------------------------------------------------------|
|--------------------------------|-------------------------------------------------------|

C5 D5
|---------------------------------||
|------------------------3--------||
|---0-----------0------2----------||
|------0------------0-------------||
|-3--------------------------2-3--||
|---------------------------------||
|
| ~~~~~~~~
|---------------------------------||
|------------------------6p5------||
|-5---(5)-7b9==(7)r(7)-------7-5--||
|---------------------------------||
|---------------------------------||
|---------------------------------||

|------------0----------1-------|---------------0------------------3-------|
|----------1---1-----3------3---|---------1--------1------------3------3---|
|-------------------------------|------------------------------------------|
|-------------------------------|------------------------------------------|
|-------0--------0--------------|-0-------------------------2--------------|
|-------------------------------|------------------------------------------|
|
|-------------------------------|------------------------------------------|
|-8b10-(8)-------5h6h8--5h6p5---|-5----------------------------------------|
|-7b9--(7)--------------------7-|---7b9==(7)-10-7r(7)-5h7p5-4--(4)-4h5p4---|
|-------------------------------|----------------------------------------5-|
|-------------------------------|------------------------------------------|
|-------------------------------|------------------------------------------|

C5
|--------0--------------1-------|----------------------------------------12-13-15-|
|-----1-----1-------3-------3---|-------------------------------12-13-15----------|
|-------------------------------|-------------------------12-14-------------------|
|-------------------------------|----------12----14-12-15-------------------------|
|-0-------------0---------------|-12-15-14----15----------------------------------|
|-------------------------------|-------------------------------------------------|
|
| PM----------------|
|-------------------------------|-------------------------------------------17-19-|
|-------------------------------|----------------------------------17-18-20-------|
|-------------------------------|-------------------------16-17-19----------------|
|-7s9s7-(7)-7-5-7-9-7-5-7-5-----|----------15----17-15-19-------------------------|
|---------------------------7-5-|-15-19-17----19----------------------------------|
|-------------------------------|-------------------------------------------------|

D5
|-15b17-(15)-15-13-12---------------------------15b17-(15)----||
|---------------------15--13-12-------------------------------||
|-------------------------------14-12-------------------------||
|-------------------------------------15-14--12---------------||
|-------------------------------------------------------------||
|-------------------------------------------------------------||
|
|-20b22-(20)-20-19-17---------------------------20b22-(20)----||
|---------------------20--18-17-------------------------------||
|-------------------------------19-17-16----------------------||
|----------------------------------------19--17---------------||
|-------------------------------------------------------------||
|-------------------------------------------------------------||

Chorus:
A5 F5 G5 C5 G5
||------0-----------|-------------------|
||о---1---1---1---1-|------3----1-------|
||--------------0---|---4----4----0---0-|
||------------------|---------------3---|
||о-0---------------|-----------3-------|
||----------1-------|-3-----------------|

A5 F5 G5 C5 G5
|-----0-----------|---------------------||
|---1---1---1---1-|------3----1--------о||
|-------------0---|---4----4----0---0---||
|-----------------|---------------3-----||
|-0---------------|-----------3--------о||
|---------1-------|-3-------------------||

Outro:
A5 F5 G5 C5 G5
|--------8----------8--------8---|---------------8b10-8-7---|
|-8b10-----8b10-------8b10-------|-8----------------------8-|
|--------------------------------|--------------------------|
|--------------------------------|--------------------------|
|--------------------------------|--------------------------|
|--------------------------------|--------------------------|
| Gtr V:
|--------------------------------|--------------------------|
|-8b10-----8b10r(8)--------5-----|-8p6p5--------------------|
|--------5----------5-7--------7-|-------7-5-7--------------|
|--------------------------------|--------------------------|
|--------------------------------|--------------------------|
|--------------------------------|--------------------------|

A5 F5 G5 C5 G5
|--------8----------8--------8---|---------------8b10-8-7------------|
|-8b10-----8b10-------8b10-------|------------------------8-(8)------|
|--------------------------------|-7---------------------------------|
|--------------------------------|------------------------------5----|
|--------------------------------|-----------------------------------|
|--------------------------------|-----------------------------------|
|
|--------------------------------|-----------------------------------|
|-8b10-----8b10r(8)--------5-----|-8p6p5-----------------------------|
|--------5----------5-7--------7-|-------7-5-7-----------------------|
|--------------------------------|-----------------------------------|
|--------------------------------|-----------------------------------|
|--------------------------------|-----------------------------------|

A5 F5
|---------------------------------------8----8-10-8-10-|
|-------------------------8---8-10-8-10---10-----------|
|-------5---5-7-5-7-9-7-9---9--------------------------|
|-7-5-7---7--------------------------------------------|
|------------------------------------------------------|
|------------------------------------------------------|

G5 C5 G5
|-15b17-(15)-15b17-(15)--15b17-(15)-15b17-(15)--15b17-(15)--15---|
|----------------------------------------------------------------|
|----------------------------------------------------------------|
|----------------------------------------------------------------|
|----------------------------------------------------------------|
|----------------------------------------------------------------|

A5 F5 G5 C5 G5 A5 F5
|-----------------------------------|----------------|----------------------|
|-----------------------------------|----------------|----------------------|
|-----------------------------------|--------5-------|----------------------|
|------------x----------------------|----------9-7-5-|-7---7-5h7-(7)--9-10--|
|-12--------x-----------------------|----------------|----------------------|
|-12------------------1-----(1)-3s5-|-3--------------|----------------------|
|
| Gtr V:
|-----------------8----8---------8---|-7--------------|----------------------|
|------------5------8-11b13----------|--------5-------|----------------------|
|--------5------5--------------------|----------7-5-4-|-5---5---5------5-----|
|--7p5h7---7-------------------------|----------------|----------------------|
|------------------------------------|----------------|----------------------|
|------------------------------------|----------------|----------------------|

G5 C5 G5 A5 F5 G5 C5 G5
|----------------|---------------------|----------------|
|----------------|---------------------|----------------|
|--------5-------|---------------------|--------5-------|
|-9--------9-7-5-|-7---7-5h7-(7)--9-10-|-9--------9-7-5-|
|----------------|---------------------|----------------|
|----------------|---------------------|----------------|
|
|----------------|---------------------|----------------|
|--------5-------|---------------------|--------5-------|
|-7--------7-5-4-|-5---5---5------5----|-7--------7-5-4-|
|----------------|-------------------7-|----------------|
|----------------|---------------------|----------------|
|----------------|---------------------|----------------|

A5 F5 G5 C5 G5
|---------------------|----------------*|
|---------------------|----------------*|
|---------------------|--------5-------*|
|-7---7-5h7-(7)--9-10-|-9--------9-7-5-*|
|---------------------|----------------*|
|---------------------|----------------*|
|
|---------------------|----------------*|
|---------------------|--------5-------*|
|-5---5---5------5----|-7--------7-5-4-*|
|---------------------|----------------*|
|---------------------|----------------*|
|---------------------|----------------*|===========

______________________________________
1) Light
E|------0-----------1-------------0-------------3-----------0-----------1----|
B|----1---1------3-----3-------1-----1-------3-----3-----1-----1-----3-----3-|
G|---------------------------------------------------------------------------|
D|---------------------------------------------------------------------------|
A|-0----------0-------------0------------2-------------0----------0----------|
E|---------------------------------------------------------------------------|

E|----------------------------|
B|-----------------3----------|
G|-----0---0----2-------------|
D|-------0---0----------------|
A|--3------------------2--3---|
E|----------------------------|

2) Heavy
E|--------|----------------------------------|
B|--------|----------------------------------|
G|-5----7-|----------------------------------|
D|-5----7-|---2-----------------------5--4---|
A|-3----5-|---0--3--5--5--5--5--5--5--3--2---|
E|--------|------1--3--3--3--3--3--3---------|
PM... ....
____________________________________________
Beginning Riff:
E|------0-----------1-------------0-------------3-----------0-----------1----|
B|----1---1------3-----3-------1-----1-------3-----3-----1-----1-----3-----3-|
G|---------------------------------------------------------------------------|
D|---------------------------------------------------------------------------|
A|-0----------0-------------0------------2-------------0----------0----------|
E|---------------------------------------------------------------------------|

E|----------------------------|
B|-----------------3----------|
G|-----0---0----2-------------|
D|-------0---0----------------|
A|--3------------------2--3---|
E|----------------------------|

Log In to leave a comment

After registration we will return you to the same place
Comments
face-with-monocle
If you wait a bit, some comments may appear here...

Shhh...

Most Popular