Loading...
Christensen Tim logo

Kings Garden Christensen Tim

  • 0
  • Share
  • Transposing
    0
  • Font Size
I've bin looking fore this song for a while. never found one matching the original
Just a bit. Bere's what I Got from listening to the song

I'm am known with the fact that Tim does not play a Bm in the Chorus.
The Bm sound okay though. if you know the exact chord played please let me know

E>||------------------------------------------
B>||------------------------------------------
G>||------------------------------------------
D>||-----2--4--11-----2---4--9---2---4---11---
A>||--0------------0-----------0--------------
E>||------------------------------------------

E>||--------------------------
B>||--------------------------
G>||--------------------------
D>||-9--7---9---6--7-7h9p97---
A>||--------------------------
E>||--------------------------

E>||---------------------------------------------------------
B>||-------------10------------10------------10---9----------
G>||---------------------------------------------------------
D>||---10--12-------10--12-------10---12---------------------
A>||---------------------------------------------------------
E>||---------------------------------------------------------

A
Is it true?
D6 E
That the pain inside me could be you
F(Dim) F#m
What I thought was all gone lingers on
Bm D E
Always slightly out of reach

A
Picture this
D6 e
Suddenly you don't know what you miss
F(Dim) F#m
But whatever it is, it's a word
Bm D E
Always slightly overheard these days

(Chorus)
Asus4 A Asus4 A
But in Kings Garden I'll find my way
bm D E
From Kings Garden to a brave new day
Asus4 A
In Kings Garden
Bm D E
The King's gotten over the dream

Continue next two vers of the song with same chords

I belive
Between you and the moon I can see
Bow I thought it would be but a cloud's
Always slightly in the way

Are you sad?
Now our future belongs to the past
Like an old photograph still remains
Always slightly out af focus now

But in Kings Garden I'll find my way
From Kings Garden to a brave new day
In Kings Garden
The King's gotten over the dream

Then comes solo. Its very easy and even more easy to improvise but if your not that good
Yet here is one i made by listening to the song sounding almost true to the original

E>||-----------------------------------------------------------------------
B>||-----------------------------------------------------------------------
G>||-----------------------------------------------------------------------
D>||------------------------------7---6-----------------9--7---7---9---7--6
A>||-4--5--7--4--5--7--4-5-7---9---------4--5--4--7--4-------9-------------
E>||-----------------------------------------------------------------------

Last chorus with few changes

Asus4 A Asus4 A
Yes in Kings Garden we'll mend our wings
Bm D E
From Kings Garden we'll fly again
Asus4 A
In Kings Garden
Bm D E
The King's got another dream
Asus4 A Bm D E
In Kings Garden the King's gotten over his Queen Q

Outro like this:

E>||--------------------------------------------------------------------
B>||-----------10------------10------------10--------10--9----0---2----9
G>||--------------------------------------------------------------------
D>||--10--12-------10--12-------10---12------10--12---------------------
A>||--------------------------------------------------------------------
E>||--------------------------------------------------------------------

End with the Chord A

Thats it..

GoOD lUCk:) Kristoffer
[email protected]

Log In to leave a comment

After registration we will return you to the same place
Comments
face-with-monocle
If you wait a bit, some comments may appear here...

Shhh...