Чиж logo

Ветер вырывает из рук Чиж

  • 0
  • Share
  • Transposing
    0
  • Font Size
Чиж – Ветер вырывает из рук
A (Fill):
E|---------------------------------------|
B|---------------------------------------|
G|--2---2-2-2-2--2-2----2-2-2-2---2-2-2--|
D|--2---2-2-2-2--2-2----2-2-2-2---2-2-2--|
A|--0---3-0-3-0--x-0----0-3-0-3---0-0-0--|
E|----3----------------------------------|

D7 A
Ветер вырывает из рук последние деньги,
A A7+9 E7
Ветер вырывает из рук последние деньги,
A
На углу у пяти углов.
D7
До тринадцатого дома пара сотен шагов -
A E7 E7/C A
Холодный ветер вырывает из рук последние деньги.

A (Fill):
E|---------------------------------------|
B|---------------------------------------|
G|--2---2-2-2-2--2-2----2-2-2-2---2-2-2--|
D|--2---2-2-2-2--2-2----2-2-2-2---2-2-2--|
A|--0---3-0-3-0--x-0----0-3-0-3---0-0-0--|
E|----3----------------------------------|

D7 A
За спиной гитара, а в кармане хлеб.
A A7+9 E7
За моей спиной гитара, в кармане пиво и хлеб.
A
Немного жаль что теперь не лето,
D7
А у тебя не плохая блокфлейта,
A E7 E7/C A
За моей спиной гитара, в моем кармане пиво и хлеб.

A (Fill):
E|---------------------------------------|
B|---------------------------------------|
G|--2---2-2-2-2--2-2----2-2-2-2---2-2-2--|
D|--2---2-2-2-2--2-2----2-2-2-2---2-2-2--|
A|--0---3-0-3-0--x-0----0-3-0-3---0-0-0--|
E|----3----------------------------------|

D7 A
Холодно в кедах, но это фигня.
A A7+9 E7
Немного холодно в кедах, но это фигня,
A
Греют деньги озябшие руки,
D7
А-уууу.
A E7 E7/C A
Холодно в кедах, но это хуйня. Соло!

A (Fill):
E|---------------------------------------|
B|---------------------------------------|
G|--2---2-2-2-2--2-2----2-2-2-2---2-2-2--|
D|--2---2-2-2-2--2-2----2-2-2-2---2-2-2--|
A|--0---3-0-3-0--x-0----0-3-0-3---0-0-0--|
E|----3----------------------------------|

D7 A
Ветер вырывает из рук последние деньги,
A A7+9 E7
Холодный ветер вырывает из рук последние деньги,
A
Там, где видно семь мостов,
D7
Один из нас был молод, другой - здоров.
A E7
Холодный ветер вырывает из рук,
A D7
Холодный ветер вырывает из рук,
A E7 A
Все так же ветер вырывает из рук последние деньги.

Log In to leave a comment

After registration we will return you to the same place
Comments
face-with-monocle
If you wait a bit, some comments may appear here...

Shhh...