Cauterize logo

Promise Me Cauterize

  • 0
  • Share
  • Font Size
Cauterize – Promise Me

PROMISE ME - Cauterize

Tabbed by: Jesse Benedick
Email: [email protected]

Tuning: DADGBe

E|-------|------------------------|------------------------|
B|-------|------------------------|------------------------|
G|---8---|---8--------------------|---8--------------------|
D|---x---|---8----8----10----6----|---8----8----10----6----|
A|---6---|---6----8----10----6----|---6----8----10----6----|
D|-------|--------8----10----6----|--------8----10----6----|
(Guitar 1) (Guitar 2) (Guitar 2 play the chords muted)
E|-------|-------------------------------------------------------|
B|-------|-------------------------------------------------------|
G|---6---|---8---7/8-8/10---8---7/8-8/10---12---12-13-12-10-8----|
D|---6---|---x---x-x-x-x----x---x-x-x-x----x----x--x--x--x--x----|
A|---8---|---6---5/6-6/8----6---5/6-6/8----10---10-11-10-8--6----|
D|-------|-------------------------------------------------------|
(Guitar 1)
E|---------------------------------------|--------------------------|
B|---------------------------------------|--------------------------|
G|----------------8888888888888888888----|-12---13---15---13---15---|
D|---------------------------------------|-x----x----x---------x----|
A|---------------------------------------|-10---11---13---11---13---|
D|---------------------------------------|--------------------------|
(Guitar 1) Verse pm........ Repeat 2x
E|------------------------------------------|
B|------------------------------------------|
G|--8---------------------------------------|
D|--8--------8--------10--------6-----------|
A|--6--------8--------10--------6-----------|
D|-----------8--------10--------6-----------|
(Guitar 2) Chorus
E|-------------------------------------------------------------------------|
B|-------------------------------------------------------------------------|
G|--------------------------------------------------------------8----8/10-8|
D|--8---6---5---5-5h6p5-------------------------8-5-8/10-8-8/10---10-------|
A|6---6---6---6-----------8---6---5---6-5h6p5-6----------------------------|
D|----------------------8---8---8---8--------------------------------------|
(Guitar 1) Chorus Riff
E|------------|-------------------|
B|------------|-------------------|
G|-7-8~-------|--7h8--8-7-8-7-----|
D|------------|--8----8-8-8-8-----|
A|------------|-------------------|
D|------------|-------------------|
Riff continued (Guitar 1 over chorus) Repeat many times
E|--------------------|--------------------------|
B|--------------------|--------------------------|
G|--------------------|------------8-7---8-7-----|
D|--8-------10--6-----|----------------8-----8---|
A|--8-------10--6-----|--------------------------|
D|--8-------10--6-----|--------------------------|
(Guitar 2) Post Chorus (Guitar 1)
E|-------------------------------|
B|-------------------------------|
G|-----------------------8-------|
D|----8------------------8-------|
A|----8------------------6-------|
D|----8--------------------------|
(Guitar 2) Post chorus end chords

| / slide up
| slide down
| h hammer-on
| p pull-off
| ~ vibrato
| + harmonic
| x Mute note
====================================================

Log In to leave a comment

After registration we will return you to the same place
Comments
face-with-monocle
If you wait a bit, some comments may appear here...

Shhh...

Most Popular