Loading...
Cathedral logo

Equilibrium Cathedral

  • 0
  • Share
  • Transposing
    0
  • Font Size
Equilibrium

By Cathedral

From the fabulous '91 album 'forest of equilibrium'

Transcribed by Christian Reindel([email protected])
Any questions or corrections - please e-mail me

Tune down to B (2.5 steps)

(The right tuning is C (2 steps down) but now you can play
this song with the others without detuning your guitar)

~ bend the note normal

~~~~~ bend the note rapidly

. p.m.

Intro

B |-----------------------|
F#|-----------------------|
D |-----------------------|
A |--/--4~~~~~~-3~~~~~----|
E |-----------------------|
B |-----------------------|

Riff 1 - 2 times
B |----------------------------------------------------------------|
F#|----------------------------------------------------------------|
D |----------------------------------------------------------------|
A |--6/8--8-8--8--3h4-3~~~~~---6/8--8-8--8--3h4-3------------------|
E |--4/6--6-6--6---------------4/6--6-6--6--------4~~~~~-----------|
B |----------------------------------------------------------------|

B |----------------------------------------------------------------|
F#|----------------------------------------------------------------|
D |----------------------------------------------------------------|
A |--6/8--8-8--8--3h4-3~~~~~---6/8--8-8--8--3h4--------------------|
E |--4/6--6-6--6---------------4/6--6-6--6------4--1~~~~-----------|
B |----------------------------------------------------------------|

Riff 2
3x 1x
B |--------------------------------|----------------------------------|
F#|--------------------------------|----------------------------------|
D |--------------------------------|----------------------------------|
A |--------------------------------|----------------------------------|
E |-----------------------6-5-4~~~-|~----------------------6-5-4~~~---|
B |--4-6-6-6--6--6---4-6-----------|--4-6-6-6--6--6---4-6-------------|
.

Riff 3 - 2 times Lost in the battlefield ...
B |-------------------------------------------------------------------|
F#|-------------------------------------------------------------------|
D |-------------------------------------------------------------------|
A |------------------------------4------------------------------------|
E |-6/8-8-8--8--8-8--5-5-5-5--4--2--6/8-8-8--8--8-8--5-5-5-5--2-------|
B |-4/6-6-6--6--6-6--3-3-3-3--2-----4/6-6-6--6--6-6--3-3-3-3----2--1--|

Riff 4 - Stand in the balance ...
B |-------------------------------------------------------------------|
F#|-------------------------------------------------------------------|
D |-------------------------------------------------------------------|
A |-------------------------------------------------------------------|
E |-5-5-5-5-/-8--5-5-/-8--9-8-9-8-7---5-5-5-5-/-8--5-5-/-8--9-8-------|
B |-3-3-3-3-/-6--3-3-/-6--7-6-7-6-5---3-3-3-3-/-6--3-3-/-6--7-6-7-6-8-|

B |-------------------------------------------------------------------|
F#|-------------------------------------------------------------------|
D |-------------------------------------------------------------------|
A |-------------------------------------------------------------9-8-7-|
E |-5-5-5-5-/-8--5-5-/-8--9-8-9-8-7---5-5-5-5-/-8--5-5-/-8--9-8-7-6-5-|
B |-3-3-3-3-/-6--3-3-/-6--7-6-7-6-5---3-3-3-3-/-6--3-3-/-6--7-6-------|

Back to riff 3 - 2 times

Than riff 4

Riff 5 - 2 times come walk with me ...
B |-------------------------------------------------------------------|
F#|-------------------6-4-3-------------------------------------------|
D |-----------4--3~~~--------3~~~------6--5-------------4-6-----------|
A |-----3--4------------------------3--------6~~~---4-6---------------|
E |--1----------------------------------------------------------------|
B |------------------------------4------------------------------------|

B |-------------------------------------------------------------------|
F#|---------------------6-4-8~~~~-------------------------------------|
D |-----------4h3p4-3~~~---------------6--5---------------------------|
A |-----3--4------------------------3---------6~~~------4-6-----------|
E |--1----------------------------------------------4-6---------------|
B |------------------------------4------------------------------------|

Riff 6 - 4 times equilibrium
B |---------------------------------------------|
F#|---------------------------------------------|
D |---10~~~~-10-12-12h13-12--9~~~~--9~--6~~~~--|
A |---------------------------------------------|
E |---------------------------------------------|
B |---6------6--8---8h9--8---5------5---2------|

Riff 7 - leadguitar
B |-----------------------|
F#|-----------------------|
D |---10-9-10-9-10-9-6-9--|
A |-----------------------|
E |-----------------------|
B |-----------------------|

Riff 8 with Riff 7
2 x 1x
B |-----------------------------------|--------------------------------|
F#|-----------------------------------|--------------------------------|
D |-----------------------------------|-----------9~~~~--13~~~~--------|
A |-----------------------------------|--6~~~~-6----------------11~~~~~|
E |--4~~~~~~~~~-----------------------|--------------------------------|
B |-------------2~~~~~~~--1------(1)--|--------------------------------|

Riff 9 with Riff 7
2x 1x
B |-----------------------------------|--------------------------------|
F#|-----------------------------------|--------------------------------|
D |-----------------------------------|--------------------------------|
A |-----------------------------------|--------------------------------|
E |--4~~~~~~~~~-----------------------|-----------7~~~~--11~~~~--------|
B |-------------2~~~~~~~--1------(1)--|--4~~~~-4---------------9~~~~~--|

Outro: guitarsolo with Riff 10 and Riff 7 'til the end

Riff 10
B |-------------------------------------|
F#|-------------------------------------|
D |-------------------------------------|
A |--6---(6)----------------------------|
E |--4---(4)----4---(4)-----3------(3)--|
B |-------------2---(2)-----1------(1)--|

End.

Log In to leave a comment

After registration we will return you to the same place
Comments
face-with-monocle
If you wait a bit, some comments may appear here...

Shhh...

Most Popular