Cash Johnny logo

Rebel Johnny Yuma Cash Johnny

  • 1
  • Share
  • Transposing
    0
  • Font Size
Cash Johnny – Rebel Johnny Yuma
Artist: Johnny Cash
Song: The Rebel Johnny Yuma
Transcripted By: Chris McAleenan
-----------------------------------------------------------

Intro: A# C F (Play Once Over Singing)

Away( A) Away( C) Away( F) goes the rebel Johnny Yuma..

-----------------------------------------------------------
Then Play..
-----------------------------------------------------------
Verse:

E:--------------------------|---------------------------|
B:--------------------------|---------------------------|
G:--------------------------|---------------------------|
D:--------------------------|-1-x-x-------1-x-x---------|
A:--1-x-x-------1-x-x-------|-------1-x-x-------1-x-x---|
E:--------1-x-x-------1-x-x-|---------------------------|

E:--------------------------|---------------------------|
B:--------------------------|---------------------------|
G:--------------------------|---------------------------|
D:--------------------------|---------------------------|
A:--------3-x-x-------3-x-x-|-1-x-x-------1-x-x---------|
E:--1-x-x-------1-x-x-------|-------1-x-x-------1-x-x---|

-----------------------------------------------------------

This is all I know of the song because I don't personally
Like the song I just tabbed it because
#1 It's easy
#2 It was requested at guitartabs.cc

Any questions can be sent to me at- [email protected]
-----------------------------------------------------------

Log In to leave a comment

After registration we will return you to the same place
Comments
face-with-monocle
If you wait a bit, some comments may appear here...

Shhh...