Cash Johnny logo

Field Of Diamonds Cash Johnny

  • 0
  • Share
  • Transposing
    0
  • Font Size
Cash Johnny – Field Of Diamonds
INTRO: C

VERSE:
C F C
FIELD OF DIAMONDS IN THE SKY
G C
WORLDS ARE WHIRLING RIGHT ON BY
C F C
ARE YOU WONDERING WHO AM I
C G C
FIELD OF DIAMONDS IN THE SKY

BREAK:
A# C
AM I JUST A STAR IN SOME CROWN
A# C D G
OR SOMEONE'S LIFE SUN GOING DOWN, DOWN, DOWN

VERSE:
FIELD OF DIAMONDS IN THE SKY
SILENT BEAUTY SHINING HIGH
ARE YOU TEARS THE ANGELS CRY
FIELD OF DIAMONDS IN THE SKY

INSTRUMENTAL:
GUITAR 1 CAN PLAY THE CHORDS TO THE VERSE AND BREAK

GUITAR 2 PLAYS THE FOLLOWING: (IMPROVISE A LITTLE)

E ------------------------|-----------------------|
B ------------------------|-----------------------|
G ------------------------|-----------------------|
D ------5-3-2-----2-------|------5-3-2-----2------|
A --3-5-------3-5---5-3---|--3-5-------3-5---5-3--|
E ------------------------|-----------------------|

E ---------------------|-------------------------------|
B ---------------------|-------------------------------|
G ----3-3-3-3--5-3-5---|----3-3-3-3--5-3-4--4/7--7/12--|
D ---------------------|-------------------------------|
A --3------------------|--3----------------------------|
E ---------------------|-------------------------------|

VERSE:
FIELD OF DIAMONDS IN THE SKY
LIKE THE NIGHT YOU PASS ME BY
I COULD TOUCH YOU IF I TRY
FIELD OF DIAMONDS IN THE SKY

BREAK:
AM I JUST A STAR IN SOME CROWN
OR SOMEONE'S LIFE SUN GOING DOWN, DOWN, DOWN

VERSE:
FIELD OF DIAMONDS IN THE SKY
SILENT BEAUTY SHINING HIGH
ARE YOU TEARS THE ANGELS CRY
FIELD OF DIAMONDS IN THE SKY

OUTRO:
INSTRUMENTAL: PLAY THE CHORDS TO ONE VERSE AND FADE OUT.

Log In to leave a comment

After registration we will return you to the same place
Comments
face-with-monocle
If you wait a bit, some comments may appear here...

Shhh...