Loading...
Carcass logo

Edge Of Darkness Carcass

  • 0
  • Share
  • Transposing
    0
  • Font Size
Join the death/black metal tab mailing list by emailing

Edge of Darkness tabs

Edge of Darkness
(Tune down 2.5 steps to B)

Intro: (2 gtrs... one does the A5 which rings out; later in the song the 2nd
Guitar basically follows the roots of the chords - it's really easy to pick
Up.)
|--------------------------------------------------------|
|---------8------7---------7---------------3-------------|
|*---------5------5-----5---5------------0----------0---*|
|*-7--------7------7---7-7---7--------------------0-----*|
|--7-----------------6-----------------3-----------------|
|--5--------------------------------------------3--------|
^this bit may be sweep picked

|--------------------------------------------|
|-----------------------------------3--------|
|*--------------------------------0-------0-*|
|*-7------5h7-5-4--7-4------------------0---*|
|--7--------------------6~~~~~--3------------|
|--5----5-----------------------------3------|

Play some weird harmonics for the radio session version...
|-----------------------------------------------|
|-----------------------------------------------|
|-----------------------------------------------|
|-----------------------------------------------|
|-7---3b4r3-------3b4r3--------54-3----2----5--|
|-5----------2~~~-------1~~~---32-1--0-0--0-3--|

Repeat the intro bit again, except there's a rhythm fill during the third
Measure of the second riff: the vibratoed G# [(5) 6 fr.] is replaced by this:
|-------------------| (Slight A. H. with this)
|-------------------|
|-------------------|
|--------7---7b9r7--|
|-6~~~-6---6--------|
|-------------------|
q e e e e e e

Then the chorus (see later), and the verse:
|-------------------------------------|
|-------------------------------------|
|-------------------------------------|
|-------------------------------------|
|-7------5------4--------3----2----5--|
|-5----0-3----0-2----0-0-1--0-0--0-3--|

|------------------|-----------------|------------------|----------------|
|------------------|-----------------|------------------|----------------|
|-2-----2---2b4r2--|------2---2b4r2--|-------2---2b4r2--|----------------|
|-2----------------|-5---------------|-4----------------|----------------|
|-0---0---0--------|-5---0--0--------|-4---0---0--------|-3-----2-----5--|
|------------------|-3---------------|-2----------------|-1---0-0---0-3--|
q e e e e e e sim.

Chorus: (other gtr. harmonise in 3rds last couple of times, in A dorian)
|-------------------|----------------------|
|-------------------|----------------------|
|-------------------|----------------------|
|-7---7-5---5h7p5---|-5-4h5p4---4-7h9p7----|
|-7-------7-------7-|---------5---------9--|
|-5-----------------|----------------------|
q e e e s s e e e s s e e e s s e e

Log In to leave a comment

After registration we will return you to the same place
Comments
face-with-monocle
If you wait a bit, some comments may appear here...

Shhh...