Loading...
Cannibal Corpse logo

Hammer Smashed Face Cannibal Corpse

  • 0
  • Share
  • Transposing
    0
  • Font Size
Cannibal Corpse,Hammer Smashed Face.
Tabbed by Matt McGrath,[email protected]

Song: Hammer Smashed Face
Band: Cannibal Corpse
Transcribed by: Matt McGrath - [email protected]

Tune down a 1/2 step

Rhy. Fig. 1a
|----------|---------|---------|---------5-5-4-4-|
|-2-2-2----|-2-2-2---|-2-2-2-8|-----------------|
|-0-0-0-12|-0-0-0-6|-0-0-0-6|-0-0-2-2---------|

Rhy. Fig. 1b
|------------------|------------------|------------------|---|
|------------------|------------------|------------------|---|
|-0000000000000000-|-0000000000000000-|-0000000000000000-|-0-|

Bass fill
|-----------------|
|-------3---------|
|-2---2---3---3---|
|---0-------1---0-|

Riff 1 Riff 2 Riff 3
|---4-----------| |---------------| |-----------|
|---------------| |---3-----------| |-----------|
|-2---2-3-------| |-2---2-3-------| |-------1---|
|---------2-0-1-| |---------2-0-1-| |-2-3-2---0-|
......... ......... p.h.

Fill 1
|-------|
|-----2-|
|-3-2-0-|
...

Rhy. Fig. 2
|-----------------2-------|-------------------------|
|-2h5p2-1h4p1-4-4-0-------|-----------------3-------|
|-------------2-2---2-1---|-3h6p3-2h5p2-5-5-1-------|
|-----------------------3-|-------------3-3---3-2-0-|
... ...

Riff 4
|-----------------------|
|-2h5p2-1h4p1-------1---|
|-------------2h3p2---0-|
p.h.

Riff 5 Riff 6
|---------5-5-4-4-| |-------------|
|-----------------| |-2-2-4-2-2-4-|
|-0-0-2-2---------| |-0-0-2-0-0-2-|
... ...

Riff 7
|----------------------|
|-2-2-2--------------8|
|-0-0-0-2--------1-1-6|
..... ...

===============================================================
The Format

Intro:
Rhy. Fig. 1a 3x
Rhy. Fig. 1b 1x
Bass Fill

Verse:
Riff 1 4x
Riff 2 4x
Riff 1 4x
Riff 3 8x
Fill 1 1x

Chorus:
Rhy. Fig. 2 2x
Riff 4 4x
Fill 1 1x
Rhy. Fig. 2 2x
Riff 4 4x

Bridge:
Riff 3 8x
Rhy. Fig. 1a 1x
Riff 5 2x
Riff 6 1x
Riff 5 2x
Riff 6 1x
Riff 5 2x
Riff 6 1x
Riff 5 2x
Riff 6 1x

Verse:
Riff 2 4x
Riff 1 4x
Riff 3 4x

Chorus:
Rhy. Fig. 2 2x
Riff 4 4x
Fill 1 1x
Rhy. Fig. 2 2x
Riff 4 4x

Gap 1:
Riff 3 8x
Rhy. Fig. 1a 1x (first 3 bars only)

Breakdown:
Riff 7 12x

Chorus (double time):
Rhy. Fig. 2 2x
Riff 4 4x
Rhy. Fig. 2 2x

Chorus (end double time):
Rhy. Fig. 2 2x
Riff 4 4x
Fill 1 1x
Rhy. Fig. 2 2x
Riff 4 4x

Outro:
Riff 3 8x
Rhy. Fig. 1a (frist 3 bars only)
End on E5

Log In to leave a comment

After registration we will return you to the same place
Comments
face-with-monocle
If you wait a bit, some comments may appear here...

Shhh...