Loading...
Bush logo

People That We Love Bush

  • 0
  • Share
  • Transposing
    0
  • Font Size
-------------------------------------------------------------------------------
Bush – The Golden State – People That We Love (Speed Kills)
Tab by: Michael I.
Questions and comments send to [email protected]
-------------------------------------------------------------------------------

INTRO (Main Riff)
E|---------------------------------------------------------------------------|
B|---------------------------------------------------------------------------|
G|-------------------5-5-5-5-------------------------------------------------|
D|-7-7-7-7--2-2-2-2--5-5-5-5--7-5-7-7----------------------------------------|
A|-7-7-7-7--2-2-2-2--3-3-3-3--7-5-7-7----------------------------------------|
E|-5-5-5-5--0-0-0-0-----------5-3-5-5----------------------------------------|

VERSE (PM)
E|---------------------------------------------------------------------------|
B|---------------------------------------------------------------------------|
G|---------------------------------------------------------------------------|
D|--------------------5-5-5-5------------------------------------------------|
A|--7-7-7-7—-2-2-2-2--3-3-3-3--7-5-7-7---------------------------------------|
E|--5-5-5-5--0-0-0-0-----------5-3-5-5---------------------------------------|

BRIDGE (2x) (We expect her gone for some time…) 16x Each Chord
E|---------------------------------------------------------------------------|
B|---------------------------------------------------------------------------|
G|---------------------------------------------------------------------------|
D|--10—-12--10--10-----------------------------------------------------------|
A|--8---10--10--10-----------------------------------------------------------|
E|----------8---7------------------------------------------------------------|

SECOND RIFF
E|---------------------------------------------------------------------------|
B|---------------------------------------------------------------------------|
G|--------5------------------------------------------------------------------|
D|--7--2-----7---------------------------------------------------------------|
A|--------3------------------------------------------------------------------|
E|--5--0-----5---------------------------------------------------------------|

During the solo play the Main Riff.

END
E|-----------
B|-----------
G|--------5--
D|--7--2-----
A|--------3--
E|--5--0-----

Log In to leave a comment

After registration we will return you to the same place
Comments
face-with-monocle
If you wait a bit, some comments may appear here...

Shhh...