Loading...
Bunton Emma logo

Sunshine On A Rainy Day Bunton Emma

  • 0
  • Share
  • Transposing
    0
  • Font Size
SUNSBiNE oN A rAiNY Day

Intro:
Yeah, yeah
E]---------0----------------0-----0----------0--------------0------
B]-------3---3---3--------3---3-----3------3---3----------3---3----
G]-----2-------2---2----2-------2--------2-------2------2-------2--
D]---0---------------------------------0--------------0------------
A]-------------------3---------------------------------------------
E]-----------------------------------------------------------------

Ooh, ooh-ooh
E]---------0----------------0-----0----------0--------------0------
B]-------3---3---3--------3---3-----3------3---3----------3---3----
G]-----2-------2---2----2-------2--------2-------2------2-------2--
D]---0---------------------------------0--------------0------------
A]-------------------3---------------------------------------------
E]-----------------------------------------------------------------

G C
I see you in the darkness
D
I see you in the light
G C
I see your eyes shining
D
In through the night

G C
Make me feel, make me feel
D
Like I belong
G C
Don't leave me, you won't leave me here
D
All alone

G
Cast your eyes
C D
Like summer skies
G C
Bluer than the ocean
D
Clearer than the skies, yeah!

G C
Sunshine on a rainy day (sunshine)
D
Makes my soul, makes my soul trip, trip, trip away
G C
Sunshine on a rainy day (sunshine)
D
Makes my soul, makes my soul trip, trip, trip away

G C
You touch me with your spirit
D
You touch me with your heart
G C
You touch me in the darkness
D
I feel it start

G C
Make it feel, make it feel
D
So unreal (so unreal)
G C
Like a wind in the desert
D
Like a moon on the sea

G C
Sunshine on a rainy day (sunshine)
D
Makes my soul, makes my soul trip, trip, trip away
G C
Sunshine on a rainy day (sunshine)
D
Makes my soul, makes my soul trip, trip, trip away

G C
Sunshine on a rainy day (sunshine)
D
Makes my soul, makes my soul trip, trip, trip away
G C
Sunshine on a rainy day (sunshine)
D
Makes my soul, makes my soul trip, trip, trip away

G C
Make it feel, make it feel
D
So unreal (so unreal)
G C
Like a wind in the desert
D
Like a moon on the sea

G C
Sunshine on a rainy day (sunshine)
D
Makes my soul, makes my soul trip, trip, trip away
G C
Sunshine on a rainy day (sunshine)
D
Makes my soul, makes my soul trip, trip, trip away

G C
Sunshine on a rainy day (sunshine)
D
Makes my soul, makes my soul trip, trip, trip away
G C
Sunshine on a rainy day (sunshine)
D
Makes my soul, makes my soul trip, trip, trip away

G C
Sunshine on a rainy day (sunshine)
D
Makes my soul, makes my soul trip, trip, trip away
G C
Sunshine on a rainy day (sunshine)
D
Makes my soul, makes my soul trip, trip, trip away

Log In to leave a comment

After registration we will return you to the same place
Comments
face-with-monocle
If you wait a bit, some comments may appear here...

Shhh...