Loading...
Breaking Benjamin logo

Polyamorous Breaking Benjamin

  • 0
  • Share
  • Transposing
    0
  • Font Size

Poyamorous - Breaking Benjamin
----------------------------------------------------------------------------

Tabbed By : N.A.

Played on a 5-string tuned down a half step. I designated the octaves in
Parantheses if you wish to play on a 4-string. If you have a 5-string,
Obviously you can ignore the parentheses.

Intro

Gb|--------------------------------------------|
Db|--------------------------------------------|
Ab|(2)(2)---(2)(5)(5)---(5)--------------------|x4
Eb|--------------------------3-3----3-3-3----3-|
Bb|-0--0-----0--3--3-----3---------------------|

Gb|------------------------------|
Db|------------------------------|
Ab|(2)(2)--(2)(2)--(2)(2)--(2)(2)|x2
Eb|------------------------------|
Bb|-0--0----0--0----0--0----0--0-|

Verse

Gb|--------------------------------| |------------------------------|
Db|--------------------------------| |------------------------------|
Ab|-2-2----------------------------|x3 |-2-2--------------------------|x1
Eb|--------2-2----3-3----0-0--2h3--| |--------2-2----3-3----0-0--3--|
Bb|--------------------------------| |------------------------------|

Chorus

Gb|-----------------------| |-----------------| |----------------|
Db|-----------------------| |-----------------| |----------------|
Ab|(5)--------------------|x2 |(5)--------------|x1 |(5)-------------|x1
Eb|----5--3----2h3-2------| |----5--3---x-3-3-| |----2--3--2h3---|
Bb|-3---------------------| |-3---------------| |-3--------------|

Gb|---------------------------------|
Db|---------------------------------|
Ab|-(2)(2)--(2)(2)--(2)(2)--(2)(2)--|x1
Eb|---------------------------------|
Bb|--0--0----0--0----0--0----0--0---|

Repeat Verse

Repeat Chorus x2

Interlude

Gb|-----------------------------------|
Db|-----------------------------------|
Ab|-2---4-5---------------------------|x2
Eb|----------2---3-2-3-----2-0---3-2--|
Bb|-----------------------------------|

Repeat Interlude and play 16th notes x2

Gb|-----------------------------------|
Db|-----------------------------------|
Ab|-2---4-5---------------------------|x2
Eb|----------2---3-2-3-----2-0---3-2--|
Bb|-----------------------------------|

Gb|-------------------------------------------|
Db|-------------------------------------------|
Ab|(5)(5)(10)(5)(5)-(10)(5)(5)-(10)(5)--------|x1
Eb|-------------------------------------------|
Bb|-3--3--8--3--3---8--3--3---8--3---------|
^
one beat rest here

Repeat Chorus x2

Outro

Gb|-------------------|
Db|-------------------|
Ab|(5)--------------- |x1
Eb|----2--3--x--3--3--|
Bb|-3-----------------|

Gb|-------------------|
Db|-------------------|
Ab|(5)----------------|x1
Eb|----2--3--2h3 2----|
Bb|-3-----------------|

Gb|-------------------|
Db|-------------------|
Ab|(5)----------------|x1
Eb|----2--3---x-3-3---|
Bb|-3-----------------|

Gb|-------------------|
Db|-------------------|
Ab|(5)----------------|x1
Eb|----2--3-----------|
Bb|-3-----------------|

Gb|----------------------------|
Db|----------------------------|
Ab|(2)(2)--(2)(2)--(2)(2)--(2)-|x1
Eb|----------------------------|
Bb|-0--0----0--0----0--0----0--|

| / slide up
| slide down
| h hammer-on
| p pull-off
| ~ vibrato
| + harmonic
| x Mute note
====================================================

Log In to leave a comment

After registration we will return you to the same place
Comments
face-with-monocle
If you wait a bit, some comments may appear here...

Shhh...