Boy Sets Fire logo

My Life In The Knife Trade Boy Sets Fire

  • 2
  • Share
  • Font Size
    15
Boy Sets Fire – My Life In The Knife Trade
MY LIFE IN THE KNIFE TRADE - Boy Sets Fire

By: GILDUZ!!  bore83@tin.it
    Milano Italy!!

< = strum

 Riff 1             x3           x1
G|----------------------|--------------------|-----|
D|----------------------|---------------4-5--|-----|
A|10--10^3--3^7-9-10----|--7--7^3--5^3-------|--7--|
E|----------------------|--------------------|-----|

 Riff 2
G|----------------------------------------------------|
D|--------------5>-444-555--------------5>-444-777----|
A|----------3>-----------------------3>---------------|
E|-0>--3>--------------------0>--3>-------------------|

 Riff 3        x2              x1
G|----------------|---------------|
D|-5--------------|---------------|
A|------3---7-5-3-|--320-230(2)---|
E|----------------|---------------|

 Riff 4      x3            x1
G|-------------|--------------|
D|-------------|--------------|
A|--7-5--320---|--7--5--3-----|
E|----------3--|-----------3--|

 Riff 5
G|-------------------|
D|--5>---------------|
A|------5>---7>---3>-|
E|-------------------|

Song Format
Riff 1
Riff 2 x2
Riff 3
Riff 4
Riff 2 x2
Riff 3
Riff 4
Riff 5 (end)

If you have any questions, comments e-mail me!
This is my first tabs!Thanks to Giorgio L.C.!!

Log In to leave a comment

After registration we will return you to the same place
Comments
face-with-monocle
If you wait a bit, some comments may appear here...

Shhh...