Loading...
Boy Hits Car logo

As I Watch The Sun Fuck The Ocean Boy Hits Car

  • 0
  • Share
  • Transposing
    0
  • Font Size
Artist: Boy Hits Car
Song: As I Watch The Sun Fuck The Ocean
Album: Boy Hits Car
Tabbed By: Mit

Tuning: All guitars - Open C [C-G-C-G-C-E]

Intro: (Acoustic)
|-0--0--0--0--0--0--0--0--0--0--0--0-|
|-0--0--0--0--0--0--0--0--0--0--0--0-|
|-0--0--10-12-10-0--3--5--6--5-----5-| x2
|-0--0--0--0--0--0--0----------------|
|-0----------------------------------|
|------------------------------------|

(Electric - heavy)
|--------------------------------------------------|
|--------------------------------------------------|
|----------------------------------------------3b--| x2
|-1-0--0--1h3---0--x-x---1-0--0--1h3---0--x-x------|
|-1-0--0--1h3---0--x-x---1-0--0--1h3---0--x-x------|
|-1-0--0--1h3---0--x-x---1-0--0--1h3---0--x-x------|

Verse:
|--------------------------| |--------------------------|
|--------------------------| |--------------------------|
|--------------------------| then: |--------5-----------------|
|--4-5-7-7-5-4-------------| |--4-5-7---5-4--------4----|
|---------------3-5-6-5-5--| |---------------3-5-6---5--|
|--------------------------| |--------------------------|
(clean x2) (distorted x2)

Chorus:
|--------------------------------------------------|
|--------------------------------------------------|
|----------------------------------------------3b--|
|-1-0--0--1h3---0--x-x---1-0--0--1h3---0--x-x------|
|-1-0--0--1h3---0--x-x---1-0--0--1h3---0--x-x------|
|-1-0--0--1h3---0--x-x---1-0--0--1h3---0--x-x------|

Interlude:
|-0----------------------------| |---0--let-ring-for---|
|-0-----0---0---0---0---0---0--| |---0--about-16-bars--|
|-0-----5---7---3---5---2---3--| x8 then: |---------------------|
|-0----------------------------| |-0-------------------|
|-0--let-chord-ring------------| |-0-------------------|
|-0----------------------------| |-0-------------------|
(Clean)

Then:
|---------------------------------|
|---------------------------------|
|---------------------------------| x4
|-7-7-7-9-9-9-5-5-5-7-7-7-4-4-5-5-|
|-5-5-5-7-7-7-3-3-3-5-5-5-2-2-3-3-|
|---------------------------------|
PM.............................
(Distorted)

Outro: (Clean)
|------------------------------------------------------|
|------------------------------------------------------|
|--------5--------------------------5------------------|
|--4-5-7---5-4--------4-------4-5-7---5-4--------------|
|---------------3-5-6-----5----------------3-5-6--3--5-|
|------------------------------------------------------|

Log In to leave a comment

After registration we will return you to the same place
Comments
face-with-monocle
If you wait a bit, some comments may appear here...

Shhh...