Loading...
Boxcar Racer logo

Tiny Voices Boxcar Racer

  • 0
  • Share
  • Transposing
    0
  • Font Size
================================================================================
Band: Boxcar Racer
Song: Tiny Voices
Album: Boxcar Racer
Submitted by CountChocula
E-Mail Address [email protected]

^ = Palm Mute
~ = Harmonics

Intro 4x

E|-------------------------------------------------------------
B|-------------------------------------------------------------
G|2--------1313--777--7------6-6-------------------------------
D|2--------1313--777--7slide-6-6-------------------------------
A|0-00000--1111--555--5------4-4-------------------------------
E|-------------------------------------------------------------
^^^^^

Verse (Many Times)

E|-------------------------------------------------------------
B|-------------------------------------------------------------
G|-------------------------------------------------------------
D|-------------------------------------------------------------
A|-000000000000000000000000000000------------------------------
E|-------------------------------------------------------------

Chorus Part 1 2x

E|-------------------------------------------------------------
B|-------------------------------------------------------------
G|--------888--44444444----------------------------------------
D|222222--xxx--xxxxxxxx--66666666--77777777--------------------
A|222222--666--22222222--66666666--77777777--------------------
E|000000-----------------44444444--55555555--------------------

Chorus Part 2 (Everybody will be let down...)

32x
E|-------------------------------------------------------------
B|-------------------------------------------------------------
G|-------------------------------------------------------------
D|-------------------------------------------------------------
A|-------------------------------------------------------------
E|-3-----------------------------------------------------------
~

Interlude (Repeat Many Times)

E|-------------------------------------------------------------
B|-------------------------------------------------------------
G|-------------------------------------------------------------
D|-------------------------------------------------------------
A|--7--7-7--9--9-9---------------------------------------------
E|00-00-0-00-00-0----------------------------------------------

Log In to leave a comment

After registration we will return you to the same place
Comments
face-with-monocle
If you wait a bit, some comments may appear here...

Shhh...