Boxcar Racer logo

There Is Live Boxcar Racer

  • 0
  • Share
  • Font Size
    15
Boxcar Racer – There Is Live
Boxcar Racer- There Is live on Jay Leno

I'm not too sure about the strumming pattern for this song, but this
Is what I came up with. I'm sure of the chords.

Intro (both guitars)
E|--------------------------------------------------------------------|
B|--------------------------------------------------------------------|
G|-8-88-8-88-88888--6-66-6-66-66666--4-44-4-44-44444--6-6-6-6-3-3-3-3-|
D|-8-88-8-88-88888--6-66-6-66-66666--4-44-4-44-44444--6-6-6-6-3-3-3-3-|
A|-6-66-6-66-66666--4-44-4-44-44444--2-22-2-22-22222--4-4-4-4-1-1-1-1-|
E|--------------------------------------------------------------------|

Verse
Guitar 1
E|--------------------------------------------------------------------|
B|--------------------------------------------------------------------|
G|-4-44-4-44-44444--4-44-4-44-44444--4-44-4-44-44444--4-44-4-44-44444-|
D|-4-44-4-44-44444--4-44-4-44-44444--4-44-4-44-44444--4-44-4-44-44444-|
A|-2-22-2-22-22222--x-xx-x-xx-xxxxx--x-xx-x-xx-xxxxx--x-xx-x-xx-xxxxx-|
E|------------------2-22-2-22-22222--4-44-4-44-44444--0-00-0-00-00000-|

Chorus
Guitar 1
E|--------------------------------------------------------------------|
B|--------------------------------------------------------------------|
G|-4-44-4-44-44444--4-44-4-44-44444--4-44-4-44-44444--4-44-4-44-44444-|
D|-4-44-4-44-44444--4-44-4-44-44444--4-44-4-44-44444--4-44-4-44-44444-|
A|-2-22-2-22-22222--x-xx-x-xx-xxxxx--x-xx-x-xx-xxxxx--x-xx-x-xx-xxxxx-|
E|------------------2-22-2-22-22222--4-44-4-44-44444--2-22-2-22-22222-|
 |                                         |
 |guitar 2                                  |
E|--------------------------------------------------------------------|
B|--------------------------------------------------------------------|
G|-4----4----4-4-6--4----4-----4-4-6-4----4----4-4-6--4----4----4-4-6-|
D|--------------------------------------------------------------------|
A|--------------------------------------------------------------------|
E|--------------------------------------------------------------------|

Interlude thing pt.1
Guitar 1
E|--------------------------------------------------------------------|
B|--------------------------------------------------------------------|
G|-8-88-8-88-88888--9-99-9-99-99999--8-88-8-88-88888--9-99-9-99-99999-|
D|-8-88-8-88-88888--9-99-9-99-99999--8-88-8-88-88888--9-99-9-99-99999-|
A|-6-66-6-66-66666--7-77-7-77-77777--6-66-6-66-66666--7-77-7-77-77777-|
E|--------------------------------------------------------------------|
 |                                         |
 |guitar 2                                  |
E|--------------------------------------------------------------------|
B|--------------------------------------------------------------------|
G|-4-44-4-44-44444--4-44-4-44-44444--4-44-4-44-44444--4-44-4-44-44444-|
D|-4-44-4-44-44444--4-44-4-44-44444--4-44-4-44-44444--4-44-4-44-44444-|
A|-2-22-2-22-22222--x-xx-x-xx-xxxxx--2-22-2-22-22222--x-xx-x-xx-xxxxx-|
E|------------------2-22-2-22-22222-------------------2-22-2-22-22222-|

Interlude thing pt.2
Guitar 1
E|--------------------------------------------------------------------|
B|--------------------------------------------------------------------|
G|-8-88-8-88-88888--9-99-9-99-99999--8-88-8-88-88888--6-66-6-66-66666-|
D|-8-88-8-88-88888--9-99-9-99-99999--8-88-8-88-88888--6-66-6-66-66666-|
A|-6-66-6-66-66666--7-77-7-77-77777--6-66-6-66-66666--4-44-4-44-44444-|
E|--------------------------------------------------------------------|
 |                                         |
 |guitar 2                                  |
E|--------------------------------------------------------------------|
B|--------------------------------------------------------------------|
G|-----------------------------------4-44-4-44-44444--4-44-4-44-44444-|
D|-6-66-6-66-66666--4-44-4-44-44444--4-44-4-44-44444--4-44-4-44-44444-|
A|-6-66-6-66-66666--4-44-4-44-44444--2-22-2-22-22222--x-xx-x-xx-xxxxx-|
E|-4-44-4-44-44444--2-22-2-22-22222-------------------2-22-2-22-22222-|

Outro Chorus(guitar 1 only the first time, then guitar 2 joins in)
Guitar 1
E|--------------------------------------------------------------------|
B|--------------------------------------------------------------------|
G|-4-44-4-44-44444--4-44-4-44-44444--4-44-4-44-44444--4-44-4-44-44444-|
D|-4-44-4-44-44444--4-44-4-44-44444--4-44-4-44-44444--4-44-4-44-44444-|
A|-2-22-2-22-22222--x-xx-x-xx-xxxxx--x-xx-x-xx-xxxxx--x-xx-x-xx-xxxxx-|
E|------------------2-22-2-22-22222--4-44-4-44-44444--2-22-2-22-22222-|
 |                                         |
 |guitar 2                                  |
E|--------------------------------------------------------------------|
B|--------------------------------------------------------------------|
G|-8-88-8-88-88888--6-66-6-66-66666--8-88-8-88-88888--6-66-6-66-66666-|
D|-8-88-8-88-88888--6-66-6-66-66666--8-88-8-88-88888--6-66-6-66-66666-|
A|-6-66-6-66-66666--4-44-4-44-44444--6-66-6-66-66666--4-44-4-44-44444-|
E|--------------------------------------------------------------------|

Any comments, corrections, send to aznloserkid182@hotmail.com

Log In to leave a comment

After registration we will return you to the same place
Comments
face-with-monocle
If you wait a bit, some comments may appear here...

Shhh...