Boxcar Racer logo

Letters To Heaven Boxcar Racer

  • 1
  • Share
  • Transposing
    0
  • Font Size
    15
Boxcar Racer – Letters To Heaven
Tabbed by:Matt
E Mail:   Tribalwar21@aol.com
Tuning: E

Any questions,comments or request E mail me!

Intro
-------------------------------------------------------|
-------------------------------------------------------|
-------------------------------------------------------|
-2-2-2-2-2-2---4----5-5-5-5-5-5------------------------|
-2-2-2-2-2-2---4----5-5-5-5-5-5------------------------|
-0-0-0-0-0-0---2----3-3-3-3-3-3------------------------|

Verse
--------------------------------------------------------|
--------------------------------------------------------|
--------------------------------------------------------|
-2-2-2-2-2-2-------5-5-5-5-5-5--------------------------|
-2-2-2-2-2-2-------5-5-5-5-5-5--------------------------|
-0-0-0-0-0-0-------3-3-3-3-3-3--------------------------|

Chorus
--------------------------------------------------------------|
--------------------------------------------------------------|
----------------5-5-5-5-5---------------------2-2-2-2-2-------|
-2-2-2-2-2------5-5-5-5-5------5-5-5-5-5------2-2-2-2-2-------|
-2-2-2-2-2------3-3-3-3-3------5-5-5-5-5------0-0-0-0-0-------|
-0-0-0-0-0---------------------3-3-3-3-3----------------------|

Play the chorus for the piano part(I think) and then go into this with alot of distortion.
-----------------------------------------|
-----------------------------------------|
-----------------------------------------|
-2-2--2-2----4---5-5--5-5----------------|
-2-2--2-2----4---5-5--5-5----------------|
-0-0--0-0----2---3-3--3-3----------------|

After that go into the chorus with alot of distortion and thats it.

Log In to leave a comment

After registration we will return you to the same place
Comments
face-with-monocle
If you wait a bit, some comments may appear here...

Shhh...