Loading...
Boxcar Racer logo

I Feel So Boxcar Racer

  • 0
  • Share
  • Transposing
    0
  • Font Size
I Feel So
Box Car Racer
Tabbed by shaggs

Standard Tuning EADGBe

~=let ring
Pm=palm mute
(*)=you don't have to play it, but it sounds good too.

!FOR THE INTRO PLAY THE STUFF BELOW!

E|--------|
B|--------|
G|--------| Start out the song by bending this chord once.
D|--5~~~~~| NOTE: have the chord already bended before you strike it
A|--5~~~~~| and then slowly unbend it.
E|--3~~~~~|

E|--------|
B|--------|
G|--------| Then play this as many times as you see fit
D|--5-----|
A|--x-----|
E|--3-----|

E|---------------------------|
B|---------------------------|
G|-----------------7777------| Play this 4 times
D|---5-555--5-555--xxxx------|
A|---5-555--5-555--5555------|
E|---0-333--0-333------------|

!FOR THE VERSE PLAY THE STUFF BELOW!

2nd guitar

E|----------------------|
B|----------------------|
G|-----4----------------| 2nd guitar plays this part for times
D|---5---44-22-44-------|
A|----------------------|
E|----------------------|

1st guitar

E|--------------------|
B|--------------------|
G|--------------------| 1st guitar comes in and plays this twice
D|--55--44-(22)-44----| when the 2nd guitar is starting to play his
A|--55--44--22--44----| piece for he third time.
E|--33--22--00--22----|
......pm...../

!FOR THE CHORUS PLAY THE STUFF BELOW!

I know this looks crazy, but it sounds right...so
Bear with me and try it. the other peple that have tabbed
This have done a brilliant job, but when it came to the
Chorus it just didnt sound right, it was to high pitched for
The song, so hear it is.

E|-------------------------------------|
B|-------------------------------------|
G|----------444444--666666--888888-----| Both guitars play this
D|--(2222)--444444--666666--888888-----| 4 times
A|---2222---222222--444444--666666-----|
E|---0000------------------------------|

E|------------------------|
B|------------------------|
G|--------------7777------| Then both guitars play this
D|--5-555-5-555-xxxx------| 4 times
A|--5-555-5-555-5555------|
E|--0-333-0-333-----------|

Then Verse x1

Then chorus x1

E|------------------------|
B|------------------------|
G|--------------7777------| Then both guitars play this
D|--5-555-5-555-xxxx------| 4 times for the interlude
A|--5-555-5-555-5555------|
E|--0-333-0-333-----------|
....pm.../

E|-------|
B|-------|
G|--4----| Then play this as many times as you see
D|--x----| fit.
A|--2----|
E|-------|

Then Chorus x4

E|------------|
B|------------|
G|------------| Then end on this!!
D|-(2)~~~~~~~~|
A|--2~~~~~~~~~|
E|--0~~~~~~~~~|

Thats it
Rock on!!!!!!!!!!!!!!!!!

Log In to leave a comment

After registration we will return you to the same place
Comments
face-with-monocle
If you wait a bit, some comments may appear here...

Shhh...