Boxcar Racer logo

I Feel So Boxcar Racer

  • 1
  • Share
  • Font Size
    15
Boxcar Racer – I Feel So
Boxcar Racer
I feel so
Daniel Rowley

It starts off as a piano then the base the guitar. do this for a while..
|-------------|
|-------------|
|-------------|
|--5----------|
|--x----------|
|--3----------|

Then play this along with the base
|-------------------------------------|
|-------------------------------------|
|-------7-----------------------------|
|-5-(5)-x-----------------------------|
|-5-----5-----------------------------|
|-3-----------------------------------|
Listen to the song to find out how many times you play it

Verse x4
|-----------------------------------------------|
|-----------------------------------------------|
|---4-------------------------------------------|
|-5---4--4-4--2-2-4-4-4-------------------------|
|-----------------------------------------------|
|-----------------------------------------------|

Chorus
|-----------------------------------------------|
|-----------------------------------------------|
|-9-(x6)-9-(x6)-6-(x6)-8-(x6)-------------------|
|-9------9------6------8------------------------|
|-7------6------4------6------------------------|
|-----------------------------------------------|

Interlude thingy
|----------------------------------------------|
|----------------------------------------------|
|----------7-(x4)------------------------------|
|-5-(x6)---x-----------------------------------|
|-5--------5-----------------------------------|
|-3--------------------------------------------|
Then play this 3 times
|----------------------------------------------|
|----------------------------------------------|
|--4--(x12)------------------------------------|
|--x-------------------------------------------|
|--2-------------------------------------------|
|----------------------------------------------|

End on this
|----|
|----|
|-9--|
|-9--|
|-7--|
|----|

Log In to leave a comment

After registration we will return you to the same place
Comments
face-with-monocle
If you wait a bit, some comments may appear here...

Shhh...