Loading...
Boxcar Racer logo

End With You Boxcar Racer

  • 0
  • Share
  • Font Size
Boxcar Racer – End With You
Box Car Racer
The End With You
Tabbed by Vince a.к.a
____ __ __ __ __ _ ____ _ _
/ __ __ __ __ / / / / / / / / (_)/ _ /| / /
/ ____// / / // /___ / /_/_/ / /_/_/ / // / / / | _/ /
/ / / /_/ // / / // / / / / // /_/ / | / /
/_/ /_____//_/ /_//_/ _/_/ _/_//_____/ _|__//__

Standard Tuning
Low to high - EADGBE

Wow lоокs liке I’m gonna have to tab all these
Boxcar racer songs. Well here you go and I didn’t
Try to mаке the perfect tab, I DID.

Prelude Thing: low dist
E|----------------------------------|
B|-----------------------------WTF?-|
G|-66666666666666666666666666666666-|
D|-XXXXXXXXXXXXXXXXXXXXXXXXXXXXXXXX-|
A|-44444444444444444444444444444444-|
E|----------------------------------|

Intro low dist
E-----------------------------------|
B-----------------------------------|
G-----------------------------6-----|
D-4-4-4 /-7--7-7-7-7-7-7-7-6/7-x-----|
A-X-X-X--7--7-7-7-7-7-7-7-X-X-4-----|
E-2-2-2 /-5--5-5-5-5-5-5-5-4/5-------|

Main Riff w/heavy dist
E|----------------------------------|
B|----------------------------------|
G|-----------------------------6----|
D|-4-4-4-6-7-7-7-7-7-7-7-7-6-7-X----| X3
A|-X-X-X-X-X-X-X-X-X-X-X-X-X-X-4----|
E|-2-2-2-4-5-5-5-5-5-5-5-5-4-5------|

Verse
E|----------------------------------|
B|----------------------------------|
G|----------------------------------|
D|-4-4-4-6-7-7----------------------| X1
A|-X-X-X-X-X-X------------5-5-------|
E|-2-2-2-4-5-5------2-2-2-----2-2---|
. . . . . . .
E|----------------------------------|
B|----------------------------------|
G|----------------------------------|
D|----------------------------------| X7
A|-0-0-0-0-0-0-0-0--------5-5-------|
E|------------------2-2-2-----2-2---|
. . . . . . . . . . . . . . .
Then play the Prelude Thing
Then the Chorus:
E|-----------------------------------|
B|-----------------------------------|
G|-------------------------------77--|
D|-------------------------------XX--| X4
A|-777777777777777-6666666/444444550-|
E|-55555555555555504444444/222222----|

Now you play the Main Riff
Then the Verse
Then the Chorus
Then the Interlude: w/weird delay or echo effect
E|---------------------------------|
B|---------------------------------|
G|--------------6-6-6/74----------|
D|-4-4-4/6/7----X-X-X-X-X----------| X6
A|-X-X-X-X-X----4-4-4/52----------|
E|-2-2-2/6/5-----------------------|

Then you play the Chorus again

Then the prelude thing as the outro

Then you’re done;)

Log In to leave a comment

After registration we will return you to the same place
Comments
face-with-monocle
If you wait a bit, some comments may appear here...

Shhh...