Bowling For Soup logo

Surf Colorado Bowling For Soup

  • 0
  • Share
  • Font Size
Bowling For Soup – Surf Colorado

Surf Colorado-Bowling For Soup

Tabbed by: Kerri Butcher
Email: [email protected]

This is my first tab, hope you like it!

| / slide up
| slide down
| h hammer-on
| p pull-off
| ~ vibrato
| + harmonic
| x Mute note
| * Play 8 times

INTRO
Guitar 1 plays-
E|---------------------------|-------------------------------------|
B|---------------------------|-------------------------------------|
G|-9-9-9-9--11-11-11-11-11---|-9--2--6--6--7--7--4--4--------------|
D|-9-9-9-9--11-11-11-11-11---|-9--2--6--6--7--7--4--4--------------|
A|-7-7-7-7--9--9--9--9--9----|-7--0--4--4--5--5--2--2--------------|
E|---------------------------|-*--*--*--*--*--*--*--*--------------|

Guitar 2 plays-
E|---------------------------------------------------------------|
B|-9--------------------9----------------------------------------|
G|---11-9-11-9-11-11-11--9-11-9-9-11-9-11-11-9---9-9-9-9-11-11---|
D|--------------------------------------------11-----------------|
A|---------------------------------------------------------------|
E|---------------------------------------------------------------|

VERSE
E|----------------------------------------------|-------------|
B|----------------------------------------------|-------------|
G|-9--2--9--2--9--2--6--4------9--2--9--2--9--2-|-6--4--------|
D|-9--2--9--2--9--2--6--4------9--2--9--2--9--2-|-6--4--------|
A|-7--0--7--0--7--0--4--2------7--0--7--0--7--0-|-4--2--------|
E|-*--*--*--*--*--*--*--*------*--*--*--*--*--*-|-*--*--------|
P.M P.M NO P.M

|PRE CHRORUS
E|-------------------------------------------------------------------|
B|-------------------------------------------------------------------|
G|-2-4-9-LET RING------------2-4-9-LET RING-------------2-2-2-2--4---|
D|-2-4-9-----------------2---2-4-9------------------2---2-2-2-2--4---|
A|-0-2-7-------------0-2-----0-2-7--------------0-2-----0-0-0-0--2---|
E|-----------------4--------------------------4------------------*---|

CHORUS X2
E|-------------------------------------|
B|-------------------------------------|
G|-9--2--6--6--7--7--4--4--------------|
D|-9--2--6--6--7--7--4--4--------------|
A|-7--0--4--4--5--5--2--2--------------|
E|--*--*--*--*--*--*--*-*--------------|

VERSE 2 Guitar 1 plays-
E|----------------------------------------------|-------------|
B|----------------------------------------------|-------------|
G|-9--2--9--2--9--2--6--4------9--2--9--2--9--2-|-6--4--------|
D|-9--2--9--2--9--2--6--4------9--2--9--2--9--2-|-6--4--------|
A|-7--0--7--0--7--0--4--2------7--0--7--0--7--0-|-4--2--------|
E|-*--*--*--*--*--*--*--*------*--*--*--*--*--*-|-*--*--------|
P.M P.M NO P.M

VERSE 2 Guitar 2 plays-(second time through verse only)
E|--------------------------------------------------------------|
B|--------------------------------------------------------------|
G|-4--4--9--9--2--2--9--9--2--2--9--9--2--2--6-6-6-6-4-LET RING-|
D|-4--4--9--9--2--2--9--9--2--2--9--9--2--2--6-6-6-6-4----------|
A|-2--2--7--7--0--0--7--7--0--0--7--7--0--0--4-4-4-4-2----------|
E|--------------------------------------------------------------|

PRE CHRORUS
E|-------------------------------------------------------------------|
B|-------------------------------------------------------------------|
G|-2-4-9-LET RING------------2-4-9-LET RING-------------2-2-2-2--4---|
D|-2-4-9-----------------2---2-4-9------------------2---2-2-2-2--4---|
A|-0-2-7-------------0-2-----0-2-7--------------0-2-----0-0-0-0--2---|
E|-----------------4--------------------------4------------------*---|

CHORUS X2
E|-------------------------------------|
B|-------------------------------------|
G|-9--2--6--6--7--7--4--4--------------|
D|-9--2--6--6--7--7--4--4--------------|
A|-7--0--4--4--5--5--2--2--------------|
E|--*--*--*--*--*--*--*-*--------------|

BRIDGE part 1
E|-------------------------------------------------------------------------|
B|-------------------------------------------------------------------------|
G|--9-9-9---2-2--9-9-9-2-2-9-2-6-4----9-9-9---2-2--9-9-9-2-2-9-2-6-4--|
D|--9-9-9---2-2--9-9-9-2-2-9-2-6-4----9-9-9---2-2--9-9-9-2-2-9-2-6-4-------|
A|--7-7-7---0-0--7-7-7-0-0-7-0-4-2----7-7-7---0-0--7-7-7-0-0-7-0-4-2------|
E|-------------------------*-*-*-*---------------------------*-*-*-*------|

BRIDGE PART 2 guitar 1- guitar 2-
E|-------------------------------|---------------------------|
B|-------------------------------|--9-11-14-16-LET RING------|
G|-9-9-9---6-6-6---2-2-2---4-----|--*-*--*-------------------|
D|-9-9-9---6-6-6---2-2-2---4-----|---------------------------|
A|-7-7-7---4-4-4---0-0-0---2-----|---------------------------|
E|-------------------------*-----|---------------------------|

CHORUS X2
E|-------------------------------------|
B|-------------------------------------|
G|-9--2--6--6--7--7--4--4--------------|
D|-9--2--6--6--7--7--4--4--------------|
A|-7--0--4--4--5--5--2--2--------------|
E|--*--*--*--*--*--*--*-*--------------|

OUTRO
X3 ON FOURTH TIME-
E|----------------------|------------------------------------|
B|----------------------|------------------------------------|
G|-----9---9------2---2-|-----9---9---------9---9------------|
D|-----9---9------2---2-|-----9---9---------9---9------------|
A|-7-7-7-7-7--0-0-0-0-0-|-7-7-7-7-7-----7-7-7-7-7------------|
E|----------------------|------------------------------------|

I think this is correct....cos im a BFS freak!
Email me if u have an alternate versions or queries

| / slide up
| slide down
| h hammer-on
| p pull-off
| ~ vibrato
| + harmonic
| x Mute note
| * Play 8 times
==================================================

Log In to leave a comment

After registration we will return you to the same place
Comments
face-with-monocle
If you wait a bit, some comments may appear here...

Shhh...

Most Popular
You Might Like