Loading...
Bowling For Soup logo

Belgium Acoustic Bowling For Soup

  • 0
  • Share
  • Transposing
    0
  • Font Size
Band: Bowling for soup
Song:Belgium (for Acoustic guitar)

I heard this on their new album 'drunk enough to dance' and thought
I'd try to tab it out. It looks hard, but it isn't, just very long.

Tips: Listen to the song to get the strum/timing right, and try to strum up and down.

Chords: EADGBe
G (320003)
D (000232)
C (032010)
A (003330)
E (022100)

Intro + verse
G D C D
e--3--3-3-2222222--0--0-0-2222222-- enter singing on third time
B--0--0-0-3333333--1--1-1-3333333-- (Lately i feel - how was i to know)
G--0--0-0-2222222--0--0-0-2222222-- x4
D--0--0-0-0000000--2--2-2-0000000--
A--2--2-2-0000000--3--3-3-0000000--
E--3--3-3-0000000--0--0-0-0000000--

Pre Chorus
A C D E
e--0--0-0-0000000--2--2-2-0000000--
B--3--3-3-1111111--3--3-3-0000000-- (That this single - Me and you)
G--3--3-3-0000000--2--2-2-1111111-- x2
D--3--3-3-2222222--0--0-0-2222222--
A--0--0-0-3333333--0--0-0-2222222--
E--0--0-0-0000000--0--0-0-0000000--

Chorus
G D C D
e--3-333-3-2222222--0-000-0-2222222--
B--0-000-0-3333333--1-111-1-3333333-- (And now you're halfway - Just a day behind)
G--0-000-0-2222222--0-000-0-2222222-- x4
D--0-000-0-0000000--2-222-2-0000000--
A--2-222-2-0000000--3-333-3-0000000--
E--3-333-3-0000000--0-000-0-0000000--

Second verse
G D C D enter singing on third time
e--3-333-3-2222222--0-000-0-2222222--
B--0-000-0-3333333--1-111-1-3333333-- (I wake up - How was i to know)
G--0-000-0-2222222--0-000-0-2222222-- x6
D--0-000-0-0000000--2-222-2-0000000--
A--2-222-2-0000000--3-333-3-0000000--
E--3-333-3-0000000--0-000-0-0000000--

Pre Chorus 2
A C D E
e--0-000-0-0000000--2-222-2-0000000--
B--3-333-3-1111111--3-333-3-0000000-- (That this single - me and you)
G--3-333-3-0000000--2-222-2-1111111-- x2
D--3-333-3-2222222--0-000-0-2222222--
A--0-000-0-3333333--0-000-0-2222222--
E--0-000-0-0000000--0-000-0-0000000--

Chorus
G D C D
e--3-333-3-2222222--0-000-0-2222222--
B--0-000-0-3333333--1-111-1-3333333-- (And know you're halfway - Just a day behind)
G--0-000-0-2222222--0-000-0-2222222-- x4
D--0-000-0-0000000--2-222-2-0000000--
A--2-222-2-0000000--3-333-3-0000000--
E--3-333-3-0000000--0-000-0-0000000--

Bridge
G D C D G D C D
e--3-3-3-2222222--0-0-0-2222222--3-3-3--2-2-----0-0-----2222222--
B--0-0-0-3333333--1-1-1-3333333--0-0-0--3----3--1----1--3333333--
G--0-0-0-2222222--0-0-0-2222222--0-0-0--2--2----0--0----2222222--
D--0-0-0-0000000--2-2-2-0000000--0-0-0--0---0---2---2---0000000--
A--2-2-2-0000000--3-3-3-0000000--2-2-2--0-------3-------0000000--
E--3-3-3-0000000--0-0-0-0000000--3-3-3--0-------0-------0000000--

G D C D G D C D
E--3-3-----2-2-----0-0-----2-2-----3-3-3--2-2-----0-0-----2222222-
B--0----0--3----3--1----1--3----3--0-0-0--3----3--1----1--3333333- (lately i feel
G--0--0----2--2----0--0----2--2----0-0-0--2--2----0--0----2222222- - how was i to know)
D--0---0---0---0---2---2---0---0---0-0-0--0---0---2---2---0000000-
A--2-------0-------3-------0-------2-2-2--0-------3-------0000000-
E--3-------0-------0-------0-------3-3-3--0-------0-------0000000-

G D C D
E--3-333-3-2222222--0-000-0-2222222--
B--0-000-0-3333333--1-111-1-3333333-- (And now you're halfway - Can't hold you tonight)
G--0-000-0-2222222--0-000-0-2222222-- x3
D--0-000-0-0000000--2-222-2-0000000--
A--2-222-2-0000000--3-333-3-0000000--
E--3-333-3-0000000--0-000-0-0000000--

G D C
E--3-333-3-2222222--0----------------
B--0-000-0-3333333--1---------------- (And now you're halfway - Just a day behind)
G--0-000-0-2222222--0----leave out---
D--0-000-0-0000000--2--the rest and--
A--2-222-2-0000000--3-----pause -----
E--3-333-3-0000000--0-----here-------

G D C D
E--3-333-3-2222222--0-000-0-2222222--
B--0-000-0-3333333--1-111-1-3333333-- (Just a day behind x3)
G--0-000-0-2222222--0-000-0-2222222--x3
D--0-000-0-0000000--2-222-2-0000000--
A--2-222-2-0000000--3-333-3-0000000--
E--3-333-3-0000000--0-000-0-0000000--

G D C D
E--3-333-3-2222222--0-000-0-2222222-3--3-3-3
B--0-000-0-3333333--1-111-1-3333333-0--0-0-0 (Just a day behind)
G--0-000-0-2222222--0-000-0-2222222-0--0-0-0
D--0-000-0-0000000--2-222-2-0000000-0--0-0-0
A--2-222-2-0000000--3-333-3-0000000-2--2-2-2
E--3-333-3-0000000--0-000-0-0000000-3--3-3-3

If you've got this far, well done
You will probably want to improve it yourself, as mine isn't
Totally right, but i tried my best.

Log In to leave a comment

After registration we will return you to the same place
Comments
face-with-monocle
If you wait a bit, some comments may appear here...

Shhh...

Most Popular
You Might Like