Bonnie Tyler logo

It's A Heartache Bonnie Tyler

  • 0
  • Share
  • Transposing
    0
  • Font Size
Bonnie Tyler – It's A Heartache
[Intro]

E|-------------0-----------------------0-----------------------0-----------------------0----------|
B|-------1--------1--------------1--------1--------------1--------1--------------1--------1-------|
G|----------0--------0--------------0--------0--------------0--------0--------------0--------0----|
D|----2-----------------2-----2-----------------2-----2-----------------2-----2-----------------2-|
A|-3-----------------------3-----------------------3-----------------------3----------------------|
E|------------------------------------------------------------------------------------------------|

[Verse 1]

C Em
It’s a heartache, nothing but a heartache
F
Hits you when it’s too late
C G
Hits you when you’re down
C Em
It’s a fool’s game, nothing but a fool’s game
F C G
Standing in the cold rain, feeling like a clown

[Verse 2]

C Em
It’s a heartache, nothing but a heartache
F
Love him til your arms break
C G
Then he let’s you down
F G
It ain’t right with love to share
Em Am G F C G
When you find he doesn’t care for you

[Verse 3]

F G
It ain’t wise to need someone
Em Am G F C G
As much as I depended on you
C Em
It’s a heartache, nothing but a heartache
F
Hits you when it’s too late
C G
Hits you when you’re down
C Em
It’s a fool’s game, nothing but a fool’s game
F C G
Standing in the cold rain, feeling like a clown

[Solo]

E|---------------------------------15--17--15--------------15-----------------------------|
B|-17--17--15----------15--17--18--------------18--17--18------18--17--15--17--17--15-----|
G|-------------17--17------------------------------------------------------------------17-|
D|----------------------------------------------------------------------------------------|
A|----------------------------------------------------------------------------------------|
E|----------------------------------------------------------------------------------------|

[Verse 4]

F G
It ain’t right with love to share
Em Am G F C G
When you find he doesn’t care for you
F G
It ain’t wise to need someone
Em Am G F C G
As much as I depend on you
C Em
It’s a heartache, nothing but a heartache
F
Love him til your arms break
C G
Then he lets you down

[Solo] (Outro)

E|---------------------------------15--17--15--------------15-----------------------------|
B|-17--17--15----------15--17--18--------------18--17--18------18--17--15--17--17--15-----|
G|-------------17--17------------------------------------------------------------------17-|
D|----------------------------------------------------------------------------------------|
A|----------------------------------------------------------------------------------------|
E|----------------------------------------------------------------------------------------|

E|---------------------------------15--17--15--------------15-----------------------------|
B|-17--17--15----------15--17--18--------------18--17--18------18--17--15--17--17--15-----|
G|-------------17--17------------------------------------------------------------------17-|
D|----------------------------------------------------------------------------------------|
A|----------------------------------------------------------------------------------------|
E|----------------------------------------------------------------------------------------|

E|---------------------------------15--17--15-|
B|-17--17--15----------15--17--18-------------|
G|-------------17--17-------------------------|
D|--------------------------------------------|
A|--------------------------------------------|
E|--------------------------------------------|

[Verse 5]

C Em F
It’s a fool’s game, standing in the cold rain
C G
Feeling like a clown
C Em F
It’s a heartache, love him til your arms break
C G
Then he let’s you down
C Em
It’s a fool’s game, standing in the cold rain

Log In to leave a comment

After registration we will return you to the same place
Comments
face-with-monocle
If you wait a bit, some comments may appear here...

Shhh...

Most Popular