Loading...
Bon Jovi logo

Thank You For Loving Me Bon Jovi

  • 0
  • Share
  • Transposing
    0
  • Font Size
Name: Paul Gabbott

Tabs: Artist: Bon Jovi
Title: Thank You For Loving Me
Album: Crush
Tabbed:Paul Gabbott
==============================

Intro
D G B A(fig2) x2

Intro Solo:
D G B A (fig2)
E:|-------------------------|----------------------------|
B:|--10b12b10---------------|--10b12b10------------------|
G:|-----------11--9h11p9--7-|------------11--9h11p9--7/9-|
D:|-------------------------|----------------------------|
A:|-------------------------|----------------------------|
E:|-------------------------|----------------------------|

Verse:

G D
Its hard for me to say the things I wanna say sometimes
G D
Theres no-one here but you and me and the broken old street light
C# B G A (fig1)
Lock the door and leave the world outside
D G A (fig2)
All I've got to give to you are these five words and I

Chorus:

D G
Thank you for lovin me
A (fig 1) D
For being my eyes when I couldn't see
C# B A E A
For parting my lips when I couldn't breathe
D G A
Thank you for lovin me
D G A (fig 2)
Thank you for lovin me

Fig 1:
E:|---------------|
B:|--2-2/3-3/5p3--|
G:|---------------|
D:|---------------|
A:|---------------|
E:|---------------|

Fig 2:
A
E:|-----------|
B:|----3---2--|
G:|----2---2--|
D:|----2---2--|
A:|-----------|
E:|-----------|

Verse:

G D
I never knew I had a dream until that dream was you
G D
When I look into your eyes the sky's a different blue
C# B G A (fig1)
Cross my heart, I wear no disguise
D G A (fig2)
If I tried, you'd make believe that you beleive my lies

Chorus:

D G
Thank you for lovin me
A (fig 1) D
For being my eyes when I couldn't see
C# B A E A
For parting my lips when I couldn't breathe
D G A
Thank you for lovin me
D G A (fig 2)
Thank you for lovin me

Bridge:

G
You pick me up when I fall down
A
You ring the bell before they count me out
E F# G
If I was drownin you would part the sea
C D E A
And risk your life to rescue me

Solo:
D G A D
E:|---------------------------------|-------------------------------||
B:|---------------------------------|--14-15-17--20-19h20p19-17-19--||
G:|---9b11-9b11-9b11b9-7h9----------|-------------------------------||
D:|------------------------7h9--9-7-|-------------------------------||
A:|---------------------------------|-------------------------------||
E:|---------------------------------|-------------------------------||

C# B G A (fig1)
Lock the door and leave the world outside
D G C A
All I've got to give to you are these five words and I

End Chorus:

D G
Thank you for lovin me
A (fig 1) D
For being my eyes when I couldn't see
C# B A E A
For parting my lips when I couldn't breathe
D G
Thank you for lovin me
A (fig 1) D
When I couldn't fly oh you gave me wings
C# B A E A
For parting my lips when I couldn't breathe
D G A
Thank you for lovin me
D G A
Thank you for lovin me
D G A (fig 2)
Thank you for lovin me

End Solo:

D G B A (fig2)
E:|-------------------------|----------------------------||
B:|--10b12b10---------------|--10b12b10------------------||
G:|-----------11--9h11p9--7-|------------11--9h11p9--7/9-|| x2
D:|-------------------------|----------------------------||
A:|-------------------------|----------------------------||
E:|-------------------------|----------------------------||

D
E:|--------------||
B:|--------------||
G:|-------7-9-7--||
D:|-----7--------||
A:|-7/9----------||
E:|--------------||

[email protected]

Log In to leave a comment

After registration we will return you to the same place
Comments
face-with-monocle
If you wait a bit, some comments may appear here...

Shhh...