Loading...
Bon Jovi logo

It's My Life Bon Jovi

  • 0
  • Share
  • Transposing
    0
  • Font Size
Intro:
E|--------------1-0---------------------|
B|----1-------5-----1--1----1--0--------|
G|*---2-----5----------2----------2----*|
D|*---2--/7------------3---------------*|
A|--------------------------------------|
E|--------------------------------------|

Am F G
This ain't a song for the broken hearted
Am F G
А silent prayer for faith departed
Am F
I ain't gonna be just a face in the crowd
C G Am
You're gonna hear my voice when I shout it out loud

Chorus:
Am F C
It's my life, it's now or never
G Am
I ain't gonna live forever
F C F G
I just want to live when I'm alive
Am F C
It's my life; my heart is like an open highway
G Am
Like franky said I did it my way,
F F
I just wanna live when I'm alive
B G C
It's my life

E|----------1-0--------------------|
B|--------5-----1--1----1--0-------|
G|------5----------2----------2----|
D|---/7------------3---------------|
A|---------------------------------|
E|---------------------------------|

Am F G
This is for ones who stood their ground
Am F G
Like Tommy and Gina, never backed down
Am C
Tomorrow's getting harder make no mistake
F G Am
Luck ain't even lucky got to make your own breaks

Chorus:
Am F C
It's my life, it's now or never
G Am
I ain't gonna live forever
F C F G
I just want to live when I'm alive
Am F C
It's my life; my heart is like an open highway
G Am
Like franky said I did it my way,
F F
I just wanna live when I'm alive
F G C
It's my life

Bridge:
G C
You better stand tall when they're calling you out
Am F G
Don't bend don't break baby don't back down

Chorus:
Am F C
It's my life, it's now or never
G Am
I ain't gonna live forever
F C F G
I just want to live when I'm alive
Am F C
It's my life; my heart is like an open highway
G Am
Like franky said I did it my way,
F F
I just wanna live when I'm alive
F G C
It's my life

E|----------1-0---------------1-0-------------|
B|--------5-----1-----------5-----1-----1-----|
G|------5---------2-------5-------------2-----|
D|---/7----------------/7---------------2-----|
A|--------------------------------------------|
E|--------------------------------------------|

Log In to leave a comment

After registration we will return you to the same place
Comments
face-with-monocle
If you wait a bit, some comments may appear here...

Shhh...