Bon Jovi logo

Fear Bon Jovi

  • 0
  • Share
  • Transposing
    0
  • Font Size
Bon Jovi – Fear
Bass riff:
F#m
E|---------------------------------|
B|---------------------------------|
G|---------------------------------|
D|---------------------------------|
A|--------4-2------------4-2-2-----|
E|-2--4-5------5--2--4-5-------5---|

Verse:
( A E)
F#m A
F#m A E

Bridge:
A D
A D E
A D
D E

Chorus:
Bass riff + guitar plays this:

E|---------------|
B|---------------|
G|------8^8------|
D|------9^9--7---|
A|-9---------7---|
E|---------------|
Repeat 4 times

Verse 2:

Let ring!
E|-----5---4--|-----------------|----5---4----|
B|--2----2----|----5----4----2--|--2---2------|
G|------------|--2----2---2-----|-------------|
D|------------|-----------------|-------------|
A|------------|-----------------|-------------|
E|------------|-----------------|-------------|

C-part:
B E E F#m E F#m B A E F#m E F#m
E|-----------------------------------------------------------|
B|-4-----------------------------4--2------------------------|
G|-4-----------------------------4--2------------------------|
D|-4--2--2-4-4--2-4-4------------4--2--2-4-4--2-4-4----------|
A|-2--2--2-4-4--2-4-4---------4--2--0--2-4-4--2-4-4--------4-|
E|----0--0-2-2--0-2-2---2-4-5----------0-2-2--0-2-2--2-4-5---|

D A E F#m E F#m D E
E|--------------------------------------------------|
B|-3----------------------------3-------------------|
G|-2--2-------------------------2-------------------|
D|-0--2---2-4-4--2-4-4----------0---2---------------|
A|----0---2-4-4--2-4-4-------2------2--2-2-2-2-2-2--|
E|--------0-2-2--0-2-2-2-4-5--------0--0-0-0-0-0-0--|

Lyrics:
I see you looking over your shoulder
Tell me who do you think's out there
You're reaching for your four leaf clover
But baby there ain't no luck down here

I swear that there's no heart in this city
It's here the slogan reads "Do your time"
Everybody's doing their sentence
It's just there ain't nobody here who knows just what's the crime

I watched my father live a lie here
I'd rather die than fade away
I read the rules and yeah, I know them
You ain't never gonna make me play the game of

Fear
Fear
Fear
Of a new thing

Running with the rats in this city
Makes you feel like you're a partner in crime
Girl, once you were young and pretty
Now you won't stop to watch
That little girl did

Hey baby, won't you stop and hear me
Just being here we're breathing heart attacks
We can run, chase the setting sun
We can run and we won't ever look back

Take my hand I know we'll make it
I'll let nothing slow us down
I know you wanna curse this place
But there's only one thing stopping us now it's

Fear
Fear
Fear
Of a new thing
Fear
Fear
Fear
Of a brass ring

You ain't one for taking chances
You work and you live and you breathe that 9 to 5
Still that's what you call living
Man, that's surviving to me
And surviving is living to die in
Fear

Log In to leave a comment

After registration we will return you to the same place
Comments
face-with-monocle
If you wait a bit, some comments may appear here...

Shhh...