Boehse Onkelz logo

Auf Gute Freunde Boehse Onkelz

  • 0
  • Share
  • Font Size
Boehse Onkelz – Auf Gute Freunde
-|----------------------------------------------------------------------------|
-|----------------------------------------------------------------------------|
-|----------------------------------------------------------------------------|
-|-------0---------0-------0-------0-------0---------0------------------------|
-|-0-1-2---0-1-2-1---0-1-2---0-1-2---0-1-2---0-1-2-1---2----------------------|
-|----------------------------------------------------------------------------|
Intro

-|----------------------------------------------------------------------------|
-|----------------------------------------------------------------------------|
-|----------------------------------------------------------------------------|
-|-9-9-9-9-9-9-9-9-5-5-5-5-5-5-5-5-12-12-12-12-12-12-12-12-7-7-7-7-7-7-7-7----|
-|-9-9-9-9-9-9-9-9-5-5-5-5-5-5-5-5-12-12-12-12-12-12-12-12-7-7-7-7-7-7-7-7----|
-|-7-7-7-7-7-7-7-7-3-3-3-3-3-3-3-3-10-10-10-10-10-10-10-10-5-5-5-5-5-5-5-5----|
Stophe

-|----------------------------------------------------------------------------|
-|----------------------------------------------------------------------------|
-|----------------------------------------------------------------------------|
-|-5-5-5-5-5-5-5-5-7-7-7-7-7-7-7-7-12-12-12-12-12-12-12-12-9-9-9-9-9-9-9-9----|
-|-5-5-5-5-5-5-5-5-7-7-7-7-7-7-7-7-12-12-12-12-12-12-12-12-9-9-9-9-9-9-9-9----|
-|-3-3-3-3-3-3-3-3-5-5-5-5-5-5-5-5-10-10-10-10-10-10-10-10-7-7-7-7-7-7-7-7----|
Bridge

-|----------------------------------------------------------------------------|
-|----------------------------------------------------------------------------|
-|----------------------------------------------------------------------------|
-|-5-5-5-5-5-5-5-5-7-7-7-7-7-7-7-7-9-9-9-9-9-9-9-9-9-9-9-9-9-9-9-9------------|
-|-5-5-5-5-5-5-5-5-7-7-7-7-7-7-7-7-9-9-9-9-9-9-9-9-9-9-9-9-9-9-9-9------------|
-|-3-3-3-3-3-3-3-3-5-5-5-5-5-5-5-5-7-7-7-7-7-7-7-7-7-7-7-7-7-7-7-7------------|
Bridge

Log In to leave a comment

After registration we will return you to the same place
Comments
face-with-monocle
If you wait a bit, some comments may appear here...

Shhh...

Versions

Most Popular