Loading...
Blur logo

You're So Great Blur

  • 0
  • Share
  • Transposing
    0
  • Font Size
Intro:

D#|-0-0-3-2-0--1---1-1-1-|
Bb|-0-0-0-0-0--1---1-1-1-|
F#|-0-0-0-0-0--0---0-0-0-|
C#|-2-2-2-2-2--3---3-3-3-|
G#|-2-2-2-2-2--3---3-3-3-|
D#|-0-0-0-0-0--1---1-1-1-|

G Bm/F#
Sad, drunk, and poorly
Cmaj7 G
Sleep in really late
G Bm/F#
Sad, drunk, and poorly
Cmaj7 Am7
Not feeling so great
G Fadd9 C
Wandering lost in a town full of frowns
G Em
Sad, drunk, and poorly
Cmaj7 Am7 F D Asus4
Dogs digging up the ground

G Em
And I feel the light
Bm C
In the night and in the day
G Em
And I feel the light
Bm Amadd9
When the skyґs just mud and grey
G Em
And I feel the light
Bm Fadd9 G G
When you tell me itґs OK
Fadd9 Am Amsus2
Cos youґre so great, and I love you

D#|----------------------p-------------------------------------|
Bb|-----------------/7--8-7------------------------------------|
F#|----------74--/7---------8-8-/5----0-7-5-5-54-0--2-7-75-5-4-|
C#|-85-5-7-5----5/7----------------7---------------------------|
G#|------------------------------------------------------------|
D#|------------------------------------------------------------|

D#|------------------------------------------------------------|
Bb|-------------------------------------------------------p----|
F#|-4^-0-2^-0-2^-0/7-7-9---------10-9-10-109--------0-0-7-0-/7-|
C#|----------------------9-7-9-9-------------9-10-10--------/7-|
G#|------------------------------------------------------------|
D#|------------------------------------------------------------|

D#|--(7)--------------------------------/4-/6-|
Bb|-------------------------------------/5-/7-|
F#|--------8/9--5-54--5-54-0-0-5-54-0---------|
C#|-------------------------------------------|
G#|-------------------------------------------|
D#|-------------------------------------------|

G Bm/F#
Tea, tea and coffee
Cmaj7 G
Helps to start the day
G Bm/F#
Tea, tea and coffee
Cmaj7 Am7
Shaking all the way
G Fadd9 C
Cityґs alive and, surprise, so Am I
G Em
Tea, tea and coffee
Cmaj7 Am7 Asus4
Get no sleep today

G Em
And I feel the light
Bm C
In the night and in the day
G Em
And I feel the light
Bm Amadd9
When the skyґs just mud and grey
G Em
And I feel the light
Bm Fadd9 G G
When you tell me itґs OK
F Am Amsus2
Cos youґre so great, and I love you

D#|-3-3-3-3-3-3-3-|
Bb|-0-0-0-0-0-0-0-|
F#|-0-0-0-0-0-0-0-|
C#|-0-0-2-0-0-0-0-|
G#|-2-2-3-2-2-2-2-|
D#|-3-3---3-3-3-3-|

D#|-00-0-0-3-2-0--1-1-1-1-1--1-1-1-1--00-0-0-0-0-0--2-|
Bb|-00-0-0-0-0-0--1-1-1-1-1--1-1-1-1--11-1-1-1-1-1--3-|
F#|-00-0-0-0-0-0--2-2-2-2-2--1-1-1-1--00-0-0-0-0-0--2-| 4x
C#|-22-2-2-2-2-2--3-3-3-3-3--3-3-3-3--22-2-2-2-2-2----|
G#|-22-2-2-2-2-2--3-3-3-3-3--3-3-3-3--33-3-3-3-3-3----|
D#|-00-0-0-0-0-0--1-1-1-1-1--1-1-1-1------------------|

D#|-0-0-3-2-0--1-|
Bb|-0-0-0-0-0--1-|
F#|-0-0-0-0-0--2-|
C#|-2-2-2-2-2--3-|
G#|-2-2-2-2-2--3-|
D#|-0-0-0-0-0--1-|

Log In to leave a comment

After registration we will return you to the same place
Comments
face-with-monocle
If you wait a bit, some comments may appear here...

Shhh...