Loading...
Blur logo

You Are So Great Blur

  • 0
  • Share
  • Transposing
    0
  • Font Size
#----------------------------------PLEASE NOTE--------------------------------#
#This file is the author's own work and represents their interpretation of the#
#song. You may only use this file for private study, scholarship, or research.#
#-----------------------------------------------------------------------------#

Blur
You're So Great

Tabbed by Andres (www.geocities.com/clubtabz)

Tuning: D# A# F# C# G# D#

INTRO
Eb-----3--2--0-------------------
Bb-----0--0--0---1---1-1--1------
Gb-----0--0--0---2---2-2--2p0----
Db--2------------3---3-3--3------
Ab--2----------------------------
Eb--0----------------------------

Chords
G Bm
Sad, drunk and poorly
Cmaj7 G
Sleeping really late
Bm
Sad, drunk and poorly
Cmaj7 Am
Not feeling so great
F
Wandering lost in a town
C
Full of frowns
G Em
Sad, drunk and poorly
Cmaj7 Am F D
Dogs digging up the ground

Eb--2-0--0--0----0----
Bb--3----3--3----3----
Gb--2----2--2-0--0----
Db--0----0--0----0----
Ab--------------------
Eb--------------------
(This is strumming)

CHORUS
G Em
And I feel the light
Bm C
In the night and in the day
G Em
And I feel the light
Bm Am
When the sky's just mud and grey
G Em
And I feel the light
Bm F
When you tell me it's ok

F-G- F-G

F Am
'Cause you're so great and I love you

SOLO
G Bm Cmaj7 G
Eb------------------------------------------------------------
Bb--------------------5/7--------12--12^--8-8-----------------
Gb--0--0--2--0--4^-0--5/7---7/9-------------------------------
Db------------------------------------------------------------
Ab------------------------------------------------------------
Eb------------------------------------------------------------

Bm Cmaj7 Am
Eb------------------------------------------------------------
Bb------------------------------------------------------------
Gb--7b9r7--7--7------5^-5r4------------7-7r5-5---4^-4--4^-----
Db----------------5----------5--5--7--------------------------
Ab------------------------------------------------------------
Eb------------------------------------------------------------

G F
Eb------------------------------------------------------------
Bb------------------------------------------------------------
Gb----------------------------5/7-7--7/9----------------------
Db-5--7b9---5--5b7--7r5----5-------------97--7/9-9-----------
Ab------------------------------------------------------------
Eb------------------------------------------------------------

C G Em
Eb------------------------------------------------------------
Bb--5---------------------------------------------------------
Gb--9^-9-9^--9b10r9-10-------------------------------7--------
Db---------------------9b11--11r9--------------9^----10b12----
Ab--------------------------------10--12^--10-----10----------
Eb------------------------------------------------------------

Cmaj7 F G
Eb------------------------------------------------------------
Bb--11-----------------------------/10--10/12----------------
Gb------7b8--7-5-4---4^----4^4^-------------------------------
Db----------------------5-------5-----------------------------
Ab------------------------------------------------------------
Eb------------------------------------------------------------

Tea tea and coffee
Helps to start the day
Tea tea and coffee
Shaking all the way

City's alive, and surprise
So am I
DT and coffee
Get no sleep today

CHORUS

Ending

Riff 1
E---------------------------------
B---------------------------------
G---------------------------------
D----------0----------------------
A----0-2-3-----0-2---2-0----------
E--3---------3-----3--------------

Riff 2
E-----3-2-0---1--1---0--0----0----
B-----0-0-0---1--1---1--1/3--3----
G-----0-0-0---2--1---0--0----0----
D--2----------3--3---2--2/4--4----
A--2----------3--3---3--3/5--5----
E--0----------1--1----------------
Repeat Riff 2 until the end

Enjoy it!
Comments and questions to [email protected]

Log In to leave a comment

After registration we will return you to the same place
Comments
face-with-monocle
If you wait a bit, some comments may appear here...

Shhh...

Most Popular
You Might Like