Loading...
Blur logo

Song 2 Blur

  • 1
  • Share
  • Transposing
    0
  • Font Size
  F D# G# A# C
I got my head checked
F D# G# A# C
By a jumbo jet
F D# G# A# C
It wasn't easy
F D# G# A# C
But nothing is, no

F D# G# A# C
Well I feel heavy metal
F D# G# A# C
And I'm pins and I'm needles
F D# G# A# C
Well I lie and I'm easy

F G# C#
All of the time and I'm never sure why I need you
Pleased to meet ya

F D# G# A# C
I got my head done
F D# G# A# C
When I was young
F D# G# A# C
It's not my problem
F D# G# A# C
It's not my problem

F D# G# A# C
Well I feel heavy metal
F D# G# A# C
And I'm pins and I'm needles
F D# G# A# C
Well I lie and I'm easy
F G# C#
All of the time and I'm never sure why I need you
Pleased to meet ya

F D# G# A# C
Yeah, yeah
F D# G# A# C
Yeah, yeah
F D# G# A# C
Yeah, yeah
F D# G# A# C
Oh, yeah
__________________

Intro:
E-----------------------------|----------------------------------|
B-----------------------------|----------------------------------|
G-----------------------------|------------------17--17--17--17--|
D-----------------------------|--13--13--15--17--17--17--17--17--|
A---15--15--------13--13--13--|--11--11--13--15--15--15--15--15--|
E---13--13--------11--11--11--|----------------------------------|

*
E----------------------------------|----------------------------------||
B----------------------------------|----------------------------------||
G----------------------------------|--13--13--15--17--17--17--17--17--||
D----------------------------------|--13--13--15--17--17--17--17--17--||
A--------15--15--------13--13--13--|--11--11--13--15--15--15--15--15--||
E---(0)--13--13--------11--11--11--|----------------------------------||

Main 8x:
E---16--16--16--16--16--16--16--16--16--16--||
B-------------------------------------------||
G---13--13--13--13--13--13--13--13--13--13--||
D-------------------------------------------||
A-------------------------------------------||
E-------------------------------------------||

Verses 4x:

E-----------------------------|----------------------------------||
B-----------------------------|----------------------------------||
G-----------------------------|------------------17--17--17--17--||
D-----------------------------|--13--13--15--17--17--17--17--17--||
A---15--15--------13--13--13--|--11--11--13--15--15--15--15--15--||
E---13--13--------11--11--11--|----------------------------------||

Chorus 16x:
*
E---16--16--16--16--16--16--16--16--16--16--||
B-------------------------------------------||
G---13--13--13--13--13--13--13--13--13--13--||
D-------------------------------------------||
A-------------------------------------------||
E-------------------------------------------||

Outro 8x: Ending:
* +
E---20--20--20--20--20--20--20--20--20--20--|--20--------------||
B-------------------------------------------|---------0-----x--||
G---17--17--17--17--17--17--17--17--17--17--|--17--------------||
D-------------------------------------------|------------------||
A-------------------------------------------|------------------||
E-------------------------------------------|------------------||

Log In to leave a comment

After registration we will return you to the same place
Comments
face-with-monocle
If you wait a bit, some comments may appear here...

Shhh...

Most Popular
You Might Like