Loading...
Blur logo

Good Song Blur

  • 0
  • Share
  • Transposing
    0
  • Font Size
E/--8-00-5-----3----3----5-----5-4-------
B/---------3-5---3----55---3-5-----------
G/--------------------------------------- Guitar I
D/--------------------------------------- Main Riff
A/---------------------------------------
E/---------------------------------------

E/---------------------------------
B/---------------------------------
G/--------------------------------- Guitar II
D/--2-2/5------------0-2/5--------- Main Riff
A/--------------------------------- (parenthesis part is actually bass line)
E/-(3)-(3)-(0-1)----(3)-(3)--(0-1)-

E/-8-88--3-555-88---
B/------------------
G/------------------ Guitar II Only
D/------------------ Bridge
A/------------------
E/------------------

E/-3-33-
B/------
G/------ Guitar II Only
D/------ Fill-in
A/------ (..and you seem very beautiful to me..)
E/------

ORDER:
Main Riff Guitar I (x2)
Main Riff Both Guitars Together (x6)
Bridge (x2)
Fill-in (x2)
Main Riff Both Guitars Together (x6)
Bridge (x2)
Fill-in (x2)
Main Riff Both Guitars Together (x8)
Main Riff Guitar II(x4) Then the first half of the riff of guitar II ends song)

Log In to leave a comment

After registration we will return you to the same place
Comments
face-with-monocle
If you wait a bit, some comments may appear here...

Shhh...

Most Popular
You Might Like