Blur logo

Bustin' & Dronin' Blur

  • 0
  • Share
  • Font Size
    15
Blur – Bustin' & Dronin'
Verse
----------------------------------------------

-14/16-14/16--16------14/16-14/16--16---------

-12/14-12/14--14------12/14-12/14--14---------
--------------0-0-0-0-0-0-0-0-0-0-0-0-0-0-0-0-
Repeat

Chorus
----------------------------------------------

-16b17r16-12-14b15r14-12-11--9----------------
----------------------------10----------------
----------------------------------------------

Repeat

Outro
----------------------------------------------
----------------------------------------------
----------------------------------------------

-7-----9-11----9-----11-12-11----7------------
-0-0-0-0-0-0-0-0-0-0-0-0-0-0-0-0-0-0-0-0-0----

Log In to leave a comment

After registration we will return you to the same place
Comments
face-with-monocle
If you wait a bit, some comments may appear here...

Shhh...