Loading...
Blur logo

Bugman Blur

  • 0
  • Share
  • Transposing
    0
  • Font Size
Blur, bugman.
Tabbed by gary, [email protected]

Bugman:
Intro: A# F# G# F# G#

A# F# G# F# G#
I am an ex offender

A# F# G# F# G#
They let me out in the summer

A# F# G# F# G#
I think I was in a coma

A# F# G# F# G#
I didn't know what to do
G#
Oh no

Chorus:

C# E
You go hang around go round
F#
I'll watch myself hang on
E
Look out for the Bugman

C# E
You go hang around around
F#
I'll watch myself hang on
N. C
Look out for the Bugman

Verse 2:

A# F# G# F# G#
I got no sent of existence

A# F# G# F# G#
I know the nodding dogs

A# F# G# F# G#
I go out in the city

A# F# G# F# G#
I stay away from the bugs
G#
Oh yeah

Chorus:

C# E
You go hang around go round
F#
I'll watch myself hang on
E
Look out for the Bugman
C# E
You go hang around around
F#
I'll watch myself hang on
N. C A#
Look out for the B-u-u-ugman

SOLO THING:

This is played on 2 guitars on the recorded version, but can also be played
On 1 if your good enough.

Guitar 1 strums an A# once and slide down four times

Guitar 2 plays around with this scale with very fast tremelo picking, heres
The scale:

E-22-19------------------------ E-20-17------------------------
B-------22-19------------------ or E-------20-17------------------
G-------------20-18------------ E-------------19-17------------

A# F# G# F# G#

A# F# G# F# G#
I go out in the city

A# F# G# F# G#
I stay away from the bugs
F
Oh yeah

A# F# G# F# G#
na na na na na oh oh...

Graham plays some minor cords underneath all that fuzz that go something like this:
e a d g b e
A#m :x x x 15 14 13
F#m :x x x 11 10 9
G#m :x x x 13 12 11

The bass for the outro goes;

E-6-6-6-4-6-6-6-4-6-6-6-4-6-2-3-4- (x2)

E-6-6-6-6-6-6-6-2-3-4-6-6-6-6-6-6-6-2-3-4

E-6-6-6-6-6-6-6-4-3-2--

A-------4s/6---------4s/6---------4s/6--------6-4--
E-2s/6---------2s/6---------2s/6---------2s/6------ (x2)

E-6-6-6-6-6-6-6-2-3-4-6-6-6-6-6-6-6-2-3-4

A-------4s/6---------4s/6---------4s/6--------6-4--
E-2s/6---------2s/6---------2s/6---------2s/6------ (x2)

A-------4s/6---------4s/6-
E-2s/6---------2s/6-------

For the end bit after the sort of bass solo alex changes between:

This riff:
E-6-6-6-6-6-6-6-2-3-4-

And this riff:

A-------4s/6-
E-2s/6-------

And graham plays this on his guitar:

D------------4-6------------4---------
A------4-4-6----------4-4-6---6-6p4---
E-4s/6-----------4s/6---------------6-

If you hadn't guessed damon is singing;

Space is the place x repeat to fade

However as far as i know he dosn't sing it on the live version.

Tabbed by Gary Dobson

:: Ultimate Guitar Archive ::
Http://www.ultimate-guitar.com

Log In to leave a comment

After registration we will return you to the same place
Comments
face-with-monocle
If you wait a bit, some comments may appear here...

Shhh...

Most Popular
You Might Like