Blondie logo

One Way Or Another Blondie

  • 0
  • Share
  • Transposing
    0
  • Font Size
Blondie – One Way Or Another
Opening and verse guitar riff:

E:------------------|------------------|----------------|-----------------|
B:------------------|------------------|----------------|-----------------|
G:------7---x-7---7-|-----7---x-7----7-|----7---x-7---7-|-----7-----------|
D:-(7)--7---x-7---7-|-----7---x-7----7-|----7---x-7---7-|-----7-7-7-6-5-4-|
A:--5---5---x-5---5-|-----5---x-5----5-|----5---x-5---5-|-----5-5-5-4-3-2-|
E:------------------|------------------|----------------|-----------------|

E:-----------------|-----------------|-----------------|-----------------||
B:-----------------|-----------------|-----------------|-----------------||
G:-----4---x-4---4-|-----4---x-4---4-|-----4---x-4---4-|-----4-----------||
D:-4---4---x-4---4-|-----4---x-4---4-|-----4---x-4---4-|-----4---4-4-5-6-||
A:-2---2---x-2---2-|-----2---x-2---2-|-----2---x-2---2-|-----2---2-2-3-4-||
E:-----------------|-----------------|-----------------|-----------------||

Melody line played over chorus:

Repeat 2x
E:---------|--------|-------------------|-------||-----------------|-------|
B:---------|--------|-------------------|-------||-----------------|-------|
G:---------|-4~-----|-4/6-----4-----2---|-------||-------2-----4---|-------|
D:--5~-----|--------|-------------------|-4~----||-5---------------|-2~----|
A:---------|--------|-------------------|-------||-----------------|-------|
E:---------|--------|-------------------|-------||-----------------|-------|

E:--------||
B:--------||
G:--------||
D:-4~-----||
A:--------||
E:--------||

Guitar Solo:

F#m F#m A C#m F#m

E:--5-----4---0-----|-4h5---4---0-----|-4h5---4---0------|-----------0-----|
B:------------------|-----------------|---------------2~-|(2)~-------------|
G:------------------|-----------------|------------------|-----------------|
D:------------------|-----------------|------------------|-----------------|
A:------------------|-----------------|------------------|-----------------|
E:------------------|-----------------|------------------|-----------------|

F#m A C#m

E:-4h5---4---0-----|-4h5---4---0-----|-4h5---4---0------|-----------0-----|
B:-----------------|-----------------|---------------2~-|(2)~-------------|
G:-----------------|-----------------|------------------|-----------------|
D:-----------------|-----------------|------------------|-----------------|
A:-----------------|-----------------|------------------|-----------------|
E:-----------------|-----------------|------------------|-----------------|

Bm7 E F#m F#m

E:-5-5-5-4-------4-|(4)--------------|-5-5-5-4-------4-/-5-------4---4---|
B:-7-7-7-5---5---5-|(5)----------5-7-|-7-7-7-5---5---6-/-7-------5---5---|
G:-----------6-----|-----------6-----|-----------6-----|-----------6-----|
D:-----------------|-----------------|-----------------|-----------------|
A:-----------------|-----------------|-----------------|-----------------|
E:-----------------|-----------------|-----------------|-----------------|

A5 A5 B5
^ ^ ^ ^ ^ ^ ^ ^ ^ ^ ^ ^
E:-4/5-5-5-4/5-5-5-4/5-5-|-5-4/5-5-5-4/5-5-5---|-5/7-7-7-5/7-7-7-5/7-7-|
B:-4/5-5-5-4/5-5-5-4/5-5-|-5-4/5-5-5-4/5-5-5---|-5/7-7-7-5/7-7-7-5/7-7-|
G:-----------------------|---------------------|-----------------------|
D:-----------------------|---------------------|-----------------------|
A:-----------------------|---------------------|-----------------------|
E:-----------------------|---------------------|-----------------------|

B5
^ ^ ^ ^
E:-7-5/7-7-7-7-8-9-10-||
B:-7-5/7-7-7-7-8-9-10-||
G:--------------------||
D:--------------------||
A:--------------------||
E:--------------------||

Fadeout:

E:------------------|---------------|-----------------|-----------------||
B:------------------|---------------|-----------------|-----------------||
G:--7-------7-------|-7-------7-----|-4-------4-------|-4-------4-------||
D:--7-------7-------|-7-------7-----|-4-------4-------|-4-------4-------||
A:--5-------5-------|-5-------5-----|-2-------2-------|-2-------2-------||
E:------5-------5---|-----5-------5-|-----2-------2---|-----2-------2---||

Log In to leave a comment

After registration we will return you to the same place
Comments
face-with-monocle
If you wait a bit, some comments may appear here...

Shhh...

Most Popular
You Might Like