Blink 182 logo

Sometimes Blink 182

  • 0
  • Share
  • Font Size
    15
Blink 182 – Sometimes
Verse:
E|---------------------------------------------------|
B|---------------------------------------------------|
G|---------------------------------------------------|
D|--------------5--5--5--5----------------7--7--7--7-|
A|-2--2--2--2---3--3--3--3---5--5--5--5---5--5--5--5-|
E|-0--0--0--0----------------3--3--3--3--------------|

Solo:
E|---------------------------------------------------|
B|---------------------------------------------------|
G|-4-4-4-4-7-7-7-5-4-----------4-5-7-5-4-----4-5p4---|
D|-------------------7-7-7-5-7-----------5-7-------5-|
A|---------------------------------------------------|
E|---------------------------------------------------|

Chorus:
E|---------------------------------------------------|
B|---------------------------------------------------|
G|---------------------------------------------------|
D|-5--5--5--5-----------------------------5--5--5--5-|
A|-3--3--3--3---5--5--5--5---2--2--2--2---3--3--3--3-|
E|--------------3--3--3--3---0--0--0--0--------------|

Log In to leave a comment

After registration we will return you to the same place
Comments
face-with-monocle
If you wait a bit, some comments may appear here...

Shhh...