Loading...
Blink 182 logo

My Pet Sally Blink 182

  • 0
  • Share
  • Transposing
    0
  • Font Size
A easy Blink 182 song.

Intro (Bass)
G|-------------------------------------------------------|
D|---------0-0-0-0---------------------------------------|
A|-0-0-2-2-----------------------------------------------|
E|-------------------------------------------------------|

Riff
E|-------------------------------------------------------|
B|-------------------------------------------------------|
G|---9-----9p6-----7-----7-----7-7-----------------------|
D|-7---7-7-----7-7---7-7---7-7---------------------------|
A|-------------------------------------------------------|
E|-------------------------------------------------------|

Verse
E|-------------------------------------------------------|
B|-------------------------------------------------------|
G|---9---7---9-7-----------------------------------------|
D|-7-9-7-7-7-9-7-7---------------------------------------|
A|-7-7-7-5-7-7-5-7---------------------------------------|
E|-5---5---5-----5---------------------------------------|

Chorus
E|-------------------------------------------------------|
B|-------------------------------------------------------|
G|-9-7-----9-7-----9-6-7---------------------------------|
D|-9-7-7---9-7-7---9-6-7---------------------------------|
A|-7-5-7---7-5-7---7-4-5---------------------------------|
E|-----5-------5-----------------------------------------|

Interlude
E|-------------------------------------------------------|
B|-------------------------------------------------------|
G|-----6-------7-------9-------7-------------------------|
D|---6---6---7---7---9---9---7---7-----------------------|
A|-4-------5-------7-------5-----------------------------|
E|-------------------------------------------------------|

Any comments? mail me at [email protected]

Log In to leave a comment

After registration we will return you to the same place
Comments
face-with-monocle
If you wait a bit, some comments may appear here...

Shhh...