Blink 182 logo

All Of This Blink 182

  • 0
  • Share
  • Font Size
    15
Blink 182 – All Of This
[Intro]
E|----------------------------------------------------------------|
B|----------------------------------------------------------------|
G|----------------------------------------------------------------|
D|-04----04/-06-07----07/-09-11----11/-12-09----09---444--666-----|X2
A|-xx----xx/-xx-xx----xx/-xx-xx----xx/-xx-xx----xx---xxx--xxx--2*-|
E|-02----02/-04-05----05/-07-09----09/-10-07----07---222--444--0*-|
| |

[Verse]
E|----------------------------------------------------------------|
B|----------------------------------------------------------------|
G|----------------------------------------------------------------|
D|-06-06-06-06-06-06-06-06-06-06-06-06-06-06-06-06---444--666-----|
A|-xx-xx-xx-xx-xx-xx-xx-xx-xx-xx-xx-xx-xx-xx-xx-xx---xxx--xxx--2*-|
E|-04-04-04-04-04-04-04-04-04-04-04-04-04-04-04-04---222--444--0*-|
| With all of this I know now, Everything inside of my head |

E|----------------------------------------------------------------|
B|----------------------------------------------------------------|
G|----------------------------------------------------------------|
D|-06-06-06-06-06-06-06-06-06-06-06-06-06-06-06-06---444--666-----|
A|-xx-xx-xx-xx-xx-xx-xx-xx-xx-xx-xx-xx-xx-xx-xx-xx---xxx--xxx--2*-|
E|-04-04-04-04-04-04-04-04-04-04-04-04-04-04-04-04---222--444--0*-|
| It all just goes to show how, Nothing I know changes me at all |

E|----------------------------------------------------------------|
B|----------------------------------------------------------------|
G|----------------------------------------------------------------|
D|-06-06-06-06-06-06-06-06-06-06-06-06-06-06-06-06---444--666-----|
A|-xx-xx-xx-xx-xx-xx-xx-xx-xx-xx-xx-xx-xx-xx-xx-xx---xxx--xxx--2*-|
E|-04-04-04-04-04-04-04-04-04-04-04-04-04-04-04-04---222--444--0*-|
| Again I wait for this to change instead, To tear the world in two |

E|----------------------------------------------------------------|
B|----------------------------------------------------------------|
G|----------------------------------------------------------------|
D|-06-06-06-06-06-06-06-06-06-06-06-06-06-06-06-06---444--666-----|
A|-xx-xx-xx-xx-xx-xx-xx-xx-xx-xx-xx-xx-xx-xx-xx-xx---xxx--xxx--2*-|
E|-04-04-04-04-04-04-04-04-04-04-04-04-04-04-04-04---222--444--0*-|
| Another night with her, But I'm always wanting you |

[Chorus]
E|------------------------------------------------------------------|
B|------------------------------------------------------------------|
G|------------------------------------------------------------------|
D|-04-04-04-04-04-04-04-04-04-04-04-04--06-06-06--07-07-07-07-07-07-|
A|-xx-xx-xx-xx-xx-xx-xx-xx-xx-xx-xx-xx--xx-xx-xx--xx-xx-xx-xx-xx-xx-|
E|-02-02-02-02-02-02-02-02-02-07-07-07--04-04-04--05-05-05-05-05-05-|
| Use me Holly come on and use me (We Know where we go) |

E|-------------------|
B|-------------------|
G|-------------------|
D|-07-07-07-07-07-07-|
A|-xx-xx-xx-xx-xx-xx-|
E|-05-05-05-05-05-05-|

E|------------------------------------------------------------------|
B|------------------------------------------------------------------|
G|------------------------------------------------------------------|
D|-04-04-04-04-04-04-04-04-04-04-04-04--06-06-06--07-07-07-07-07-07-|
A|-xx-xx-xx-xx-xx-xx-xx-xx-xx-xx-xx-xx--xx-xx-xx--xx-xx-xx-xx-xx-xx-|
E|-02-02-02-02-02-02-02-02-02-07-07-07--04-04-04--05-05-05-05-05-05-|
| Use me Holly come on and use me (We go where we know) |

E|-------------------|
B|-------------------|
G|-------------------|
D|-07-07-07-07-07-07-|
A|-xx-xx-xx-xx-xx-xx-|
E|-05-05-05-05-05-05-|

[Break]
E|----------------------------------------------------------------|
B|----------------------------------------------------------------|
G|----------------------------------------------------------------|
D|-04----04/-06-07----07/-09-11----11/-12-09----09---444--666-----|X2
A|-xx----xx/-xx-xx----xx/-xx-xx----xx/-xx-xx----xx---xxx--xxx--2*-|
E|-02----02/-04-05----05/-07-09----09/-10-07----07---222--444--0*-|
| |

[Verse]
E|------------------------------------------------------------|
B|------------------------------------------------------------|
G|------------------------------------------------------------|
D|------------------------------------------------------------|
A|------------------------------------------------------------|
E|------------------------------------------------------------|
| With all of this I feel now, Everything inside of my heart |

E|-----------------------------------------------------------------|
B|-----------------------------------------------------------------|
G|-----------------------------------------------------------------|
D|-----------------------------------------------------------------|
A|-----------------------------------------------------------------|
E|-----------------------------------------------------------------|
| It all just seems to be how, Nothing I feel pulls at me at all |

E|----------------------------------------------------------------|
B|----------------------------------------------------------------|
G|----------------------------------------------------------------|
D|-06-06-06-06-06-06-06-06-06-06-06-06-06-06-06-06---444--666-----|
A|-xx-xx-xx-xx-xx-xx-xx-xx-xx-xx-xx-xx-xx-xx-xx-xx---xxx--xxx--2*-|
E|-04-04-04-04-04-04-04-04-04-04-04-04-04-04-04-04---222--444--0*-|
| Again I wait for this to pull apart, To break my time in two |

E|----------------------------------------------------------------|
B|----------------------------------------------------------------|
G|----------------------------------------------------------------|
D|-06-06-06-06-06-06-06-06-06-06-06-06-06-06-06-06---444--666-----|
A|-xx-xx-xx-xx-xx-xx-xx-xx-xx-xx-xx-xx-xx-xx-xx-xx---xxx--xxx--2*-|
E|-04-04-04-04-04-04-04-04-04-04-04-04-04-04-04-04---222--444--0*-|
| Another night with her, But I'm always wanting you |

[Chorus]
E|---------------------------------------------------------------------|
B|---------------------------------------------------------------------|
G|---------------------------------------------------------------------|
D|-04-04-04-04-04-04-04-04-04-04-04-04--06-06-06--07-07-07-07-07-07-07-|
A|-xx-xx-xx-xx-xx-xx-xx-xx-xx-xx-xx-xx--xx-xx-xx--xx-xx-xx-xx-xx-xx-xx-|
E|-02-02-02-02-02-02-02-02-02-07-07-07--04-04-04--05-05-05-05-05-05-05-|
| Use me Holly come on and use me (We know where we go) |

E|----------------|
B|----------------|
G|----------------|
D|-07-07-07-07-07-|
A|-xx-xx-xx-xx-xx-|
E|-05-05-05-05-05-|

E|---------------------------------------------------------------------|
B|---------------------------------------------------------------------|
G|---------------------------------------------------------------------|
D|-04-04-04-04-04-04-04-04-04-04-04-04--06-06-06--07-07-07-07-07-07-07-|
A|-xx-xx-xx-xx-xx-xx-xx-xx-xx-xx-xx-xx--xx-xx-xx--xx-xx-xx-xx-xx-xx-xx-|
E|-02-02-02-02-02-02-02-02-02-07-07-07--04-04-04--05-05-05-05-05-05-05-|
| Use me Holly come on and use me (We go where we know) |

E|----------------|
B|----------------|
G|----------------|
D|-07-07-07-07-07-|
A|-xx-xx-xx-xx-xx-|
E|-05-05-05-05-05-|

[Break]
E|-------------------------------------------------|
B|-------------------------------------------------|
G|-------------------------------------------------|
D|-04----04/-06-07----07/-09-11----11/-12-09----09-|
A|-xx----xx/-xx-xx----xx/-xx-xx----xx/-xx-xx----xx-|
E|-02----02/-04-05----05/-07-09----09/-10-07----07-|
| She's all I need, She's all I dream |

E|-------------------------------------------------|
B|-------------------------------------------------|
G|-------------------------------------------------|
D|-04----04/-06-07----07/-09-11----11/-12-09----09-|
A|-xx----xx/-xx-xx----xx/-xx-xx----xx/-xx-xx----xx-|
E|-02----02/-04-05----05/-07-09----09/-10-07----07-|
| She's all I'm always wanting |

E|-------------------------------------------------|
B|-------------------------------------------------|
G|-------------------------------------------------|
D|-04----04/-06-07----07/-09-11----11/-12-09----09-|
A|-xx----xx/-xx-xx----xx/-xx-xx----xx/-xx-xx----xx-|
E|-02----02/-04-05----05/-07-09----09/-10-07----07-|
| She's all I need, She's all I dream |

E|-------------------------------------------------|
B|-------------------------------------------------|
G|-------------------------------------------------|
D|-04----04/-06-07----07/-09-11----11/-12-09----09-|
A|-xx----xx/-xx-xx----xx/-xx-xx----xx/-xx-xx----xx-|
E|-02----02/-04-05----05/-07-09----09/-10-07----07-|
| She's all, I'm always wanting you... |

[Intrelude]
E|---------------------------------|
B|---------------------------------|
G|--2--2--2---1-1---2--2--2---1----|
D|-------------------------------2-|
A|---------------------------------|
E|---------------------------------|
|you... |

E|---------------------------------|
B|---------------------------------|
G|--2--2--2---1-1---2--2--2---1----|
D|-------------------------------2-|
A|---------------------------------|
E|---------------------------------|
| I'm always wanting you

E|---------------------------------|
B|---------------------------------|
G|--2--2--2---1-1---2--2--2---1----|
D|-------------------------------2-|
A|---------------------------------|
E|---------------------------------|
| |

E|---------------------------------|
B|---------------------------------|
G|--2--2--2---1-1---2--2--2---1----|
D|-------------------------------2-|
A|---------------------------------|
E|---------------------------------|
| I'm always wanting you |

[Repeat]
E|---------------------------------|
B|---------------------------------|
G|--2--2--2---1-1---2--2--2---1----|
D|-------------------------------2-|
A|---------------------------------|x4
E|---------------------------------|
| |

[Chorus]
E|------------------------------------------------|
B|------------------------------------------------|
G|------------------------------------------------|
D|-04-04-04-04-04-04-04-04-04-04-04-04--06-06-06--|
A|-xx-xx-xx-xx-xx-xx-xx-xx-xx-xx-xx-xx--xx-xx-xx--|
E|-02-02-02-02-02-02-02-02-02-07-07-07--04-04-04--|
| Use me Holly come on and use me (We go where we know) |

E|-------------------------------------|
B|-------------------------------------|
G|-------------------------------------|
D|-07-07-07-07-07-07-07-07-07-07-07-07-|
A|-xx-xx-xx-xx-xx-xx-xx-xx-xx-xx-xx-xx-|
E|-05-05-05-05-05-05-05-05-05-05-05-05-|

E|------------------------------------------------|
B|------------------------------------------------|
G|------------------------------------------------|
D|-04-04-04-04-04-04-04-04-04-04-04-04--06-06-06--|
A|-xx-xx-xx-xx-xx-xx-xx-xx-xx-xx-xx-xx--xx-xx-xx--|
E|-02-02-02-02-02-02-02-02-02-07-07-07--04-04-04--|
| Use me Holly come on and use me (We go where we know) |

E|-------------------------------------|
B|-------------------------------------|
G|-------------------------------------|
D|-07-07-07-07-07-07-07-07-07-07-07-07-|
A|-xx-xx-xx-xx-xx-xx-xx-xx-xx-xx-xx-xx-|
E|-05-05-05-05-05-05-05-05-05-05-05-05-|

[Break]
E|-------------------------------------------------|
B|-------------------------------------------------|
G|-------------------------------------------------|
D|-04----04/-06-07----07/-09-11----11/-12-09----09-|
A|-xx----xx/-xx-xx----xx/-xx-xx----xx/-xx-xx----xx-|
E|-02----02/-04-05----05/-07-09----09/-10-07----07-|
| She's all I need, She's all I dream |

E|-------------------------------------------------|
B|-------------------------------------------------|
G|-------------------------------------------------|
D|-04----04/-06-07----07/-09-11----11/-12-09----09-|
A|-xx----xx/-xx-xx----xx/-xx-xx----xx/-xx-xx----xx-|
E|-02----02/-04-05----05/-07-09----09/-10-07----07-|
| She's all I'm always wanting |

E|-------------------------------------------------|
B|-------------------------------------------------|
G|-------------------------------------------------|
D|-04----04/-06-07----07/-09-11----11/-12-09----09-|
A|-xx----xx/-xx-xx----xx/-xx-xx----xx/-xx-xx----xx-|
E|-02----02/-04-05----05/-07-09----09/-10-07----07-|
| She's all I need, She's all I dream |

E|-------------------------------------------------|
B|-------------------------------------------------|
G|-------------------------------------------------|
D|-04----04/-06-07----07/-09-11----11/-12-09----09-|
A|-xx----xx/-xx-xx----xx/-xx-xx----xx/-xx-xx----xx-|
E|-02----02/-04-05----05/-07-09----09/-10-07----07-|
| She's all, I'm always wanting you... |

[Break]
E|----------------------------------------------------------------|
B|----------------------------------------------------------------|
G|----------------------------------------------------------------|
D|-06-06-06-06-06-06-06-06-06-06-06-06-06-06-06-06---444--666-----|
A|-xx-xx-xx-xx-xx-xx-xx-xx-xx-xx-xx-xx-xx-xx-xx-xx---xxx--xxx--2*-|x2
E|-04-04-04-04-04-04-04-04-04-04-04-04-04-04-04-04---222--444--0*-|
| |

Log In to leave a comment

After registration we will return you to the same place
Comments
face-with-monocle
If you wait a bit, some comments may appear here...

Shhh...