Black Sabbath logo

Under The Sun Black Sabbath

  • 0
  • Share
  • Transposing
    0
  • Font Size
Black Sabbath – Under The Sun
Intro
E|----------------------------------|
B|----------------------------------|
G|----------------------------------|
D|----------4--3---7--6---5---4-----|
A|-2---2-2--2--1---5--4---3---2-----|
E|-0---0-0--------------------------|

Riff A
E|-------------------------|
B|-------------------------|
G|-------------------------|
D|-------------p-p---p-----|
A|------9----10-9-7-9-7----|
E|-0--0----0---------------|
. . .

Riff B
E|-----------------------------------------7----|
B|-------------------------------7910-10910-----|
G|---------------------7910-10910---------------|
D|-----------7910-10910-------------------------|
A|-7910-10910-----------------------------------|
E|----------------------------------------------|
This is incorrect, but close enough.

Riff C
E|-----------------|---|
B|-----------------|---|
G|-----------------|---|
D|-----------------|---|
A|-----------------|---|
E|-5--5--5--5--3-3-|-5-|
^play this last time only

Riff D
E|-----------------|---|
B|-----------------|---|
G|-----------------|---|
D|-----------------|---|
A|-2--2--2--2--0-0-|-2-|
E|-----------------|---|
^play this last time only

Riff E
E|-----------------|
B|-----------------|
G|-----------------|
D|-----------------|
A|-4--4--4--4--2-2-|
E|-----------------|

Riff F
E|-----------------|
B|-----------------|
G|-----------------|
D|-----------------|
A|-5--5--5--5--3-3-|
E|-----------------|

Riff G
E|------------------------------------|
B|------------------------------------|
G|------------------------------------|
D|-9-9\\7-7\\5--------9-9\\7-7\\5---------|
A|-----------7-7-77-----------5-5-55--|
E|------------------------------------|

E|------------------------------|
B|------------------------------|
G|------------------------------|
D|-9-9\\7-7\\5--------------------|
A|-----------3-3-33-5-3-2-2-22--|
E|------------------------------|

Outro
E|-----------|---------------------------------------------|---|
B|-----------|---------------------------------------------|---|
G|-----------|---------------------------------------------|---|
D|-9-9\\7-7\\5-|-9-9-99-9-7-7-77-7-5-5-55-5-2-0-----2-0------|-9-|
A|-----------|-7-7-77-7-5-5-55-5-3-3-33-3-----2-0-----2-0--|-7-|
E|-----------|---------------------------------------------|---|
^play first time play last time^

Song Structure: Intro x 3
Riff A x 20
Riff B x 1
Riff A x 20
Riff B x 1
Riff C x 10
Riff D x 10
Riff E x 4
Riff F x 8
Riff A x 20
Riff B x 1
Riff G x 8
Outro x 3

Log In to leave a comment

After registration we will return you to the same place
Comments
face-with-monocle
If you wait a bit, some comments may appear here...

Shhh...