Loading...
Black Sabbath logo

Sabbra Cadabra Black Sabbath

  • 0
  • Share
  • Transposing
    0
  • Font Size
=== The Eternal Idol`s Black Sabbath Tablature

From- Michael James

Sabbra Cadabra
Black Sabbath - Sabbath, Bloody Sabbath (1974)

Tune down 1 1/2 steps ( C#)

|--------3---------------3--------------3----------------3----------|
|----3h5---5-5-5-----3h5---5-5-5----3h5--------------3h5------------|
|--4---------------4--------------4-------432------4-------432------|
|---------------------------------------------2-2---------------2-2-|
|-------------------------------------------------------------------|
|-------------------------------------------------------------------|

Solo:
|----------------------------------------------------------|
|------------------------------------------8~--------------|
|------------------------------9-9---9-7-9----9-7----------|
|-7^~~~~---97--5-7-5-7-5--7/9-----------------------------|
|----------------------------------------------------------|
|----------------------------------------------------------|
| |
|----------------------------------------------------------|
|--------------------------------------8^------------------|
|------------------------------9-9-9-9-------9-7-----------|
|-7^~~~~---97--5-7-5-7-5--7/9-----------------------------|
|----------------------------------------------------------|
|----------------------------------------------------------|

|----------------------------------------------------------
|---------------------------------------------8------------
|-----7-------------------------------9-9-------9----------
|-7/9---97--7-5-7^~~~~--7-5-7-5--7h9-----7h9--------------
|----------------------------------------------------------
|----------------------------------------------------------

|----------------------
|----------------------
|----------------------
|-97-5-7-5-7~~-5------
|----------------------
|----------------------

varies:
|----------------------------------------|
|----------------------------------------|
|--7--9--9--7--9--9---7-6-7-6-7-6--7-9-9-|
|--7--9--9--7--9--9---7-6-7-6-7-6--7-9-9-|
|--5--7--7--5--7--7---5-4-5-4-5-4--5-7-7-|
|----------------------------------------|
| ||||||||||
|-----12-12-------12-12--10-9-10-9-10-9-----------|
|--15-15^15^---15-15^15^----------------12p10-----|
|---------------------------------------------9-9-|

"feel so happy sionce i met that girl..."
|----------------------------------------|
|----------------------------------------|
|--7--9--9--7--9--9---7-7-7-7-7-7--7-9-9-|
|--7--9--9--7--9--9---7-7-7-7-7-7--7-9-9-|
|--5--7--7--5--7--7---5-5-5-5-5-5--5-7-7-|
|----------------------------------------|

"some1 to love me..."
|---------------|---------------|
|---------------|---------------|
|---------------|---------------|
|-7----------7--|-9-------------|
|-7----------7--|-9-------------|
|-5----------5--|-7-------------|

"lonely lady..make love all nite long"
|---0-----3-----0-----3-----------|
|-----0-----0-----0-----0---------|
|---------------------------------|
|-2-----2-----2-----2-----2-0-1-2-|
|---------------------------------|
|---------------------------------|

"I dont want to leave you..."
repeat: "Anymore...no more"
|------------|------------|--------------------------------|
|------------|------------|--------------------------------|
|-5----------|-4----------|--------------------------------|
|-5----------|-4----------|-2--2-2---x-x-x-7-7-7--7-7-----|
|-3----------|-2----------|-2--2-2---x-x-x-7-7-7--7-7-----|
|------------|------------|-0--0-0---x-x-x-5-5-5--5-5-----|

slide|---|
|------------------------------------------------|
|------------------------------------------------|
|------------7p5---7--5-------454-0---0-4-54----|
|----7-7p5-7-7p5---7--5-------454-0-5-0-4-54----|
|----7-7p5-7-----7------7-----------5------------|
|--0----------------------0-------------------0--|
This is the little thing at the end.

Log In to leave a comment

After registration we will return you to the same place
Comments
face-with-monocle
If you wait a bit, some comments may appear here...

Shhh...

Versions

Most Popular
You Might Like