Loading...
Black Sabbath logo

Paranoid Black Sabbath

  • 0
  • Share
  • Transposing
    0
  • Font Size
Intro:
E|------------------------------------------------------|
B|------------------------------------------------------|
G|------------------------------------------------------|
D|-------------------------------12h14-------12---------|
A|--12h14---12h14---12h14--12h14-------12h14----14------|
E|--12------12------12----------------------------------|

1st and 4th Verse:
E|-------------------------||---------------------------|
B|-------------------------||---------------------------|
G|-------------------------||o--------------------------|
D|-------------------------||o--------------------------|
A|-14-14-14-14-14-14-14-14-||---12-12-12-12-12-12-12-12-|
E|-12-12-12-12-12-12-12-12-||---10-10-10-10-10-10-10-10-|
Pm......................................................

E|-----------------------------------------------------||
B|----------------------12-----------------------------||
G|-12-------------------12-----------------------------||
D|-12-------------------12-----------------------------||
A|-10--12-------14------------14-14-14-14-14-14-14-14--||
E|-----10-------12------------12-12-12-12-12-12-12-12--||
Pm .........................

E|------------------------------------------------------|
B|------------------------------------------------------|
G|--------------------------12--------------------------|
D|--------------------------12--------------------------|
A|-12-12-12-12-12-12-12-12--10--12------14--------------|
E|-10-10-10-10-10-10-10-10------10------12-----0---0----|
Pm........................

E|------------------------------------------------------------|
B|------------------------------------------------------------|
G|------------------------------------------------------------|
D|------------------------------------------------------------|
A|-14\\10----10----12----14-14-14-14-14-14-14-14-14-14-14-14---|
E|-12\\-8-----8----10----12-12-12-12-12-12-12-12-12-12-12-12-0-|
Pm ..................................

2nd and 5th Verses:
E|-------------------------------------------------------------|
B|-------------------------------------------------------------|
G|------------------------------------------------------12-----|
D|------------------------------------------------------12-12--|
A|-14-14-14-14-14-14-14-14-----12-12-12-12-12-12-12-12--10-12--|
E|-12-12-12-12-12-12-12-12-----10-10-10-10-10-10-10-10---------|
Pm....................................................

E|--------12------------------------------------------------------|
B|--------12------------------------------------------------------|
G|--------12------------------------------------------------------|
D|--------12------------------------------------------------------|
A|-14------------14-14-14-14-14-14-14-14--12-12-12-12-12-12-12-12-|
E|-12------------12-12-12-12-12-12-12-12--10-10-10-10-10-10-10-10-|
Pm .................................................

E|----------------------------------------------------|
B|----------------------------------------------------|
G|-12-------------------------------------------------|
D|-12-------------------------------------------------|
A|-10--12-------14------------------------------------|
E|-----10-------12----12--12--------------------------|
Pm ........

Bridge:
E|---------------------------------------------------|
B|---------------------------------------------------|
G|---------------------------------------------------|
D|---------------------------------------------------|
A|-14~~~~~---------14~~~----x\\\\-----12~~~--------12--|
E|-12~~~~~---------12~~~----x\\\\-----10~~~--------10--|

E|---------------------------------------------------|
B|---------------------------------------------------|
G|---------------------------------------------------|
D|---------------------------------------------------|
A|-14~~~~~---------14~~-------------12~~---------12--|
E|-12~~~~~---------12~~-------------10~~---------10--|

E|----------------------------------------------------|
B|----------------------------------------------------|
G|----------------------------------------------------|
D|----------------------------------------------------|
A|-14-14-14-14-14-14-14-14-14-14-14-14-14-14-14-14-14-|
E|-12-12-12-12-12-12-12-12-12-12-12-12-12-12-12-12-12-|
Pm....................................................

E|---------------------------------------------------------------|
B|---------------------------------------12----------------------|
G|--------------------------12-----------12----12--11------12h13-|
D|--------------------------12-12--------12----12---x--14--12----|
A|-12-12-12-12-12-12-12-12--10-12---14---------10--12--14--------|
E|-10-10-10-10-10-10-10-10----------12-------------10--12--------|
Pm........................

3rd Verse:
E|----------------------------------------------------|
B|----------------------------------------------------|
G|----------------------------------------------------|
D|----------------------------------------------------|
A|-14-14-14-14-14-14-14-14-14-14-14-14-14-14-14-14-14-|
E|-12-12-12-12-12-12-12-12-12-12-12-12-12-12-12-12-12-|
Pm....................................................

E|------------------------------------------12-------------------|
B|------------------------------------------12-------------------|
G|--------------------------12--11----------12----12----------12-|
D|--------------------------12---x----------12----12----------12-|
A|-12-12-12-12-12-12-12-12--10--12-----14---------10--12--14-----|
E|-10-10-10-10-10-10-10-10------10-----12-------------10--12-----|
Pm........................

Fill: (2:44)
E|---------------------|
B|---------------------|
G|---------------------|
D|---------------------|
A|--2------------------|
E|--------3^-------0---|

Solo: w/ring modulation effect and uneffected
Track panned to opposite stereo channels
E|-----------------------------------------------------------|
B|-----------------------------------------------------------|
G|-9^---7--7h9~~--9--7-9p7-----------------------------------|
D|--------------------------9\\7--5h7-5h7--------5------------|
A|---------------------------------------5h7-7-----7---7~----|
E|-----------------------------------------------------------|

E|-------------------------------------------------------------------|
B|---------------------8--10-10^-8-10^-p8-10--8----------------------|
G|---------7h9-9--7/9---------------------------9--9---7h9--9--9/14--|
D|-5h7-7/9-----------------------------------------------------------|
A|-------------------------------------------------------------------|
E|-------------------------------------------------------------------|

E|-----12--------------------------15^--15^--15^-p12--15p12----15p12-----|
B|-12------15--15^--15^--15^--12----------------------------15-------15^-|
G|-----------------------------------------------------------------------|
D|-----------------------------------------------------------------------|
A|-----------------------------------------------------------------------|
E|-----------------------------------------------------------------------|

E|--------------12--------------------------------------------------------|
B|-15p12-----12----15p12--------------------------------------------------|
G|-------14^-------------14--14p12----12--14^-p12--14^--12h14p12----12----|
D|---------------------------------14----------------------------14----14-|
A|------------------------------------------------------------------------|
E|------------------------------------------------------------------------|

E|-----------------------------------------------------------------------|
B|-----------------------------------------------------------------------|
G|-----------------------------------------------------12----------------|
D|-14p12-----12------------------------------12--12h14----14--12---14-12-|
A|-------14-------12--10--12p10----10h12/14------------------------------|
E|------------------------------12---------------------------------------|

E|------------------------------------------------------------------------|
B|------------------------------------------------------------------------|
G|------------------------------------------------------------------------|
D|-14---------------------------------------------------------------------|
A|------14-14-14-14-14-14-14-14-14-14-14-14-14-14-14-14-14-12-12-12-12-12-|
E|------12-12-12-12-12-12-12-12-12-12-12-12-12-12-12-12-12-10-10-10-10-10-|
Pm ..................................................................

E|------------------------------------------------------------------|
B|------------------------------------12----------------------------|
G|------------------------12-11-------12h13---12----------12h13-----|
D|------------------------12--x---14--12------12--12--14--12--------|
A|-12-12-12-12-12-12-12---10-12---14--12------10--12--14--12--------|
E|-10-10-10-10-10-10-10---10-10---12--------------10--12------------|

Log In to leave a comment

After registration we will return you to the same place
Comments
face-with-monocle
If you wait a bit, some comments may appear here...

Shhh...

Most Popular
You Might Like