Black Sabbath logo

Glory Ride Black Sabbath

  • 0
  • Share
  • Transposing
    0
  • Font Size
Black Sabbath – Glory Ride
|-----------------------------------------------------------------
|-----------------------------------------------------------------
|---------5--7/9--7-7--10\\9-7-5---------5--7/9--7--7\\5------------
|---5-7\\--5--7/9--7-7--10\\9-7-5-5-5-7\\--5--7/9--7--7\\5---5---5-7\\-
|---5-7\\--3--5/7--5-5-0-8\\7-5-3-5-5-7\\--3--5/7--5--5\\3---5-2-5-7\\-
|-0-3-5\\0-----------------------3-3-5\\-----------------0-3-0-3-5\\-

-------------------------------------------|
-------------------------------------------|
---5--7/9--7-7---10\\9-7-5----------5/7-----|
---5--7/9--7-7---10\\9-7-5-5-5-7\\---5/7--5--|
---3--5/7--5-5--0-8\\7-5-3-5-5-7\\-0-3/5--5--|
-0------------------------3-3-5\\--------3--|

***during verse, groove on open A string***

"and in the morning..."
|---------5-----------------------5-----------1--0h1-------
|-----5h6-------------3-------5h6-----------3--------------
|---7--------7\\-------2-----7-------------2----------------
|-0-------------0---------0-------------0------------------
|----------------------------------------------------------
|----------------------------------------------------------

|---------5-----------1-------------5----------------------
|-----5h6-------------3---------5h6------3-----------------
|---7---------------2---------7----------2-----------------
|-0-------------0-----------0------------0-----------------
|----------------------------------------------------------
|----------------------------------------------------------

"hear them calling"
|----------------------------------------------------------
|----------------------------------------------------------
|-----------------7--5--------------10p9----10p9-----------
|-0--0-0-0--0-0-0-7--5-0-0-0--0-0-0-10p9-10-10p9-10--------
|----------------------------------------10------10--------
|----------------------------------------------------------

|----------------------------------------------------------
|----------------------------------------------------------
|----------------10p9-----------------10p9----10p9---------
|-0-0-0-0--0-0-0-10p9-10-0-0-0--0-0-0-10p9-10-10p9-10------
|---------------------10-------------------10------10------
|----------------------------------------------------------

|------------------
|------------------
|-7--(7)-----------
|-7--(7)--3---5----
|-5--(5)--3---5----
|---------1---3----

Solo: in E

|-3--3-3--3-3-3-3--2--2-2--2-2-2-2p0-----------------------
|-3--3-3--3-3-3-3--3--3-3--3-3-3-3-------------------------
|-2--2-2--2-2-2-2--2--2-2--2-2-2-2-------------------------
|-0--0-0--0-0-0-0--0--0-0--0-0-0-0-------------------------
|----------------------------------------------------------
|----------------------------------------------------------

|-3--3-3-2-3------3--2-----
|-3--3-3-3-3---3--3--3-----
|-2--2-2-2-2---2--2--2-----
|-0--0-0-0-0---0--0--0-----
|--------------------------
|--------------------------

Log In to leave a comment

After registration we will return you to the same place
Comments
face-with-monocle
If you wait a bit, some comments may appear here...

Shhh...

Versions

Most Popular
You Might Like