Loading...
Black Sabbath logo

Breakout Black Sabbath

  • 0
  • Share
  • Transposing
    0
  • Font Size
E|-----------------------------------------|
B|-----------------------------------------|
G|-----------------------------------------|
D|-----2-------------------2---------------|
A|2h4h5---------------2h4h5----------------|
E|-------0-{Let ring}--------0-{Let ringg}-|

E|-----------------------------------------|
B|-----------------------------------------|
G|-----------------------------------------|
D|-----2-------------------2---------------|
A|2h4h5---------------2h4h5----------------|
E|-------0-{Let ring}--------0-{Let ringg}-|
{Brass Begins}

E|-----------------------------------------|
B|-----------------------------------------|
G|-----------------------------------------|
D|-----2-------------------2---------------|
A|2h4h5---------------2h4h5----------------|
E|-------0-{Let ring}--------0-{Let ringg}-|
{Brass Lead Begins}

E|-----------------------------------------|
B|-----------------------------------------|
G|-----------------------------------------|
D|-----2-------------------2---------------|
A|2h4h5---------------2h4h5----------------|
E|-------0-{Let ring}--------0-{Let ringg}-|

E|-----------------------------------------------------------------|
B|-----------------------------------------------------------------|
G|-----------------------------------------------------------------|
D|-----2----------5-4p0--5/7-5p0-2-----22---------5-4p0--5/7-5p0-2-|
A|2h4h5-----2h4h5-----------------2h4h5------2h4h5-----------------|
E|-------0--------------------------------0------------------------|

E|-----------------------------------------------------------------|
B|-----------------------------------------------------------------|
G|-----------------------------------------------------------------|
D|-----2----------5-4p0--5/7-5p0-2-----22---------5-4p0--5/7-5p0-2-|
A|2h4h5-----2h4h5-----------------2h4h5------2h4h5-----------------|
E|-------0--------------------------------0------------------------|

E|-----------------------------------------|
B|-----------------------------------------|
G|-----------------------------------------|
D|-----2-------------------2---------------|
A|2h4h5---------------2h4h5----------------|
E|-------0-{Let ring}--------0-{Let ringg}-|

E|-----------------------------------------|
B|-----------------------------------------|
G|-----------------------------------------|
D|-----2-------------------2---------------|
A|2h4h5---------------2h3h5----------------|
E|-------0-{Let ring}--------0-{Let ringg}-|

E|---------------------------------------------|
B|---------------------------------------------|
G|---------------------------------------------|
D|-----2-------------------2-------------------|
A|2h3h5---------------2h4h5--------------------|
E|-------0-{Let ring}--------0-{Let ringg}[/7]-|
{End Brass Lead}
"Swinging the Chain"
{Mod 108 beats/min}
A C A A A A A C A A A A
E|--------------------------------------------------------------|
B|--------------------------------------------------------------|
G|----------5-------------------------------5-------------------|
D|-------2--5----------2--2-2-2----------2--5----------2--2-2-2-|
A|3-3p0--0--3--------0-0--0-0-0--3-3p0---0--3--------0-0--0-0-0-|
E|-----3-------0-1-3------------------3--------0-1-3------------|
U {.pm.} u {.pm.}

A C A A A A A C A A A A
E|--------------------------------------------------------------|
B|--------------------------------------------------------------|
G|----------5-------------------------------5-------------------|
D|-------2--5----------2--2-2-2----------2--5----------2--2-2-2-|
A|3-3p0--0--3--------0-0--0-0-0--3-3p0---0--3--------0-0--0-0-0-|
E|-----3-------0-1-3------------------3--------0-1-3------------|
U {.pm.} u {.pm.}
It's against my uniform to be a civil judge.

A C A A A A A C A A A A
E|--------------------------------------------------------------|
B|--------------------------------------------------------------|
G|----------5-------------------------------5-------------------|
D|-------2--5----------2--2-2-2----------2--5----------2--2-2-2-|
A|3-3p0--0--3--------0-0--0-0-0--3-3p0---0--3--------0-0--0-0-0-|
E|-----3-------0-1-3------------------3--------0-1-3------------|
U {.pm.} u {.pm.}
All the songs are history now, 'bout rock stars and their grudge.

A C A A A A A C A A A A
E|--------------------------------------------------------------|
B|--------------------------------------------------------------|
G|----------5-------------------------------5-------------------|
D|-------2--5----------2--2-2-2----------2--5----------2--2-2-2-|
A|3-3p0--0--3--------0-0--0-0-0--3-3p0---0--3--------0-0--0-0-0-|
E|-----3-------0-1-3------------------3--------0-1-3------------|
U {.pm.} u {.pm.}
Let us cast our minds back to thirty years or more.

A C A A A A A C A A A A
E|--------------------------------------------------------------|
B|--------------------------------------------------------------|
G|----------5-------------------------------5-------------------|
D|-------2--5----------2--2-2-2----------2--5----------2--2-2-2-|
A|3-3p0--0--3--------0-0--0-0-0--3-3p0---0--3--------0-0--0-0-0-|
E|-----3-------0-1-3------------------3--------0-1-3------------|
U {.pm.} u {.pm.}
You talk of all the Vandals, well Hitler beat them all!

CHOURSE

A C D E C A A A A D E C A A A A
E|-----------------------------------------------|
B|-----------------------------------------------|
G|--5--7---9--5--------------7---9-5-------------|
D|2-5--7---9--5--2--2-2---2--7---9-5--2---2-2--2-|
A|0-3--5---7--3--0--0-0---0--5---7-3--0---0-0--0-|
E|-----------------------------------------------|
And we're so sorry. We're really sorry it happened that way.

A C D E C A A A B B B B B B B B B B B
E|----------------------------------------------|
B|----------------------------------------------|
G|--5--7---9--5---------------------------------|
D|2-5--7---9--5--2--2-2--9-9-9-9-9-9-9-99-9-9-9-|
A|0-3--5---7--3--0--0-0--9-9-9-9-9-9-9-99-9-9-9-|
E|-----------------------7-7-7-7-7-7-7-77-7-7-7-|
{....chop with.pm.....}
Yes we're so sorry, but why'd ya have to treat us that way?

A C A A A A A C A A A A
E|--------------------------------------------------------------|
B|--------------------------------------------------------------|
G|----------5-------------------------------5-------------------|
D|-------2--5----------2--2-2-2----------2--5----------2--2-2-2-|
A|3-3p0--0--3--------0-0--0-0-0--3-3p0---0--3--------0-0--0-0-0-|
E|-----3-------0-1-3------------------3--------0-1-3------------|
U {.pm.} u {.pm.}

A C A A A A A C A A A A
E|--------------------------------------------------------------|
B|--------------------------------------------------------------|
G|----------5-------------------------------5-------------------|
D|-------2--5----------2--2-2-2----------2--5----------2--2-2-2-|
A|3-3p0--0--3--------0-0--0-0-0--3-3p0---0--3--------0-0--0-0-0-|
E|-----3-------0-1-3------------------3--------0-1-3------------|
U {.pm.} u {.pm.}
Lay yourselves with others, and cover them in sin.

A C A A A A A C A A A A
E|--------------------------------------------------------------|
B|--------------------------------------------------------------|
G|----------5-------------------------------5-------------------|
D|-------2--5----------2--2-2-2----------2--5----------2--2-2-2-|
A|3-3p0--0--3--------0-0--0-0-0--3-3p0---0--3--------0-0--0-0-0-|
E|-----3-------0-1-3------------------3--------0-1-3------------|
U {.pm.} u {.pm.}
Oh God, what a terrible, terrible state we're in!

A C A A A A A C A A A A
E|--------------------------------------------------------------|
B|--------------------------------------------------------------|
G|----------5-------------------------------5-------------------|
D|-------2--5----------2--2-2-2----------2--5----------2--2-2-2-|
A|3-3p0--0--3--------0-0--0-0-0--3-3p0---0--3--------0-0--0-0-0-|
E|-----3-------0-1-3------------------3--------0-1-3------------|
U {.pm.} u {.pm.}
There must be some way out of here! A comprimise that's wise.

A C A A A A A C A A A A
E|--------------------------------------------------------------|
B|--------------------------------------------------------------|
G|----------5-------------------------------5-------------------|
D|-------2--5----------2--2-2-2----------2--5----------2--2-2-2-|
A|3-3p0--0--3--------0-0--0-0-0--3-3p0---0--3--------0-0--0-0-0-|
E|-----3-------0-1-3------------------3--------0-1-3------------|
U {.pm.} u {.pm.}
If we can not work it out, we're gonna have to fight!

CHOURSE

A C D E C A A A A D E C A A A A
E|-----------------------------------------------|
B|-----------------------------------------------|
G|--5--7---9--5--------------7---9-5-------------|
D|2-5--7---9--5--2--2-2---2--7---9-5--2---2-2--2-|
A|0-3--5---7--3--0--0-0---0--5---7-3--0---0-0--0-|
E|-----------------------------------------------|
And we're so sorry. We're really sorry it happened that way.

A C D E C A A A B B B B B B B B B B B
E|----------------------------------------------|
B|----------------------------------------------|
G|--5--7---9--5---------------------------------|
D|2-5--7---9--5--2--2-2--9-9-9-9-9-9-9-99-9-9-9-|
A|0-3--5---7--3--0--0-0--9-9-9-9-9-9-9-99-9-9-9-|
E|-----------------------7-7-7-7-7-7-7-77-7-7-7-|
{....chop with.pm.....}
Yes we're so sorry. We can not go on another day!

LEAD (1:57) (2:06)
E|-----------------------------------------------|
B|15^(17-17-17-17-17~\\9)-------------------------|
G|------------------------7^(9)-5~----5hh7~------|
D|--------------------------------7~--------7-7~-|
A|-----------------------------------------------|
E|-----------------------------------------------|

E|-----------------5-8---------------------|
B|------8p5-8-5-8p5---8p5------------------|
G|-5h7-------------------7~------------5---|
D|----7--------------------7p5-5h7p5----7~-|
A|----------------------------7-----7------|
E|-----------------------------------------|

(Guitar 1)
A\\E E/A A A A A A A A A A A A A A A A A A
E|--------------------------------------------------|
B|--------------------------------------------------|
G|--------------------------------------------------|
D|7\\2-----7-7-7--7-7-7--7-7-7--7-7-7--7--7-7--7-7-7-|
A|7\\2--2s/7-7-7--7-7-7--7-7-7--7-7-7--7--7-7--7-7-7-|
E|5\\0--0s/5-5-5--5-5-5--5-5-5--5-5-5--5--5-5--5-5-5-|
D d d d d d d d d d d d d d d d d d
{..................pm...................}
(Guitar 2)
(2:11)
E|------------------------------------------------------------5----------5-|
B|----------------------------------------5-8p5----------------8p5-7s^(9)--|
G|(3)/7^(9-9-9-9-9-9-9-9`7)-5-7p5-5-7^(99)-----7-5-7p5-5-7^(9)-------------|
D|-------------------------------7--------------------7--------------------|
A|-------------------------------------------------------------------------|
E|-------------------------------------------------------------------------|
(Guitar 1)

A A A A A A A A A A A A A A A
E|----------------------------------|
B|----------------------------------|
G|----------------------------------|
D|7-7-7--7-7-7--7-7-7--7-7-7--7-7-7-|
A|7-7-7--7-7-7--7-7-7--7-7-7--7-7-7-|
E|5-5-5--5-5-5--5-5-5--5-5-5--5-5-5-|
D d d d d d d d d d d d d d d
{...............pm..............}
(Guitar 2)
(2:14)
--------5---8-7-5------------------|
---------7p5-----8-7-5-------------|
-7^(9)----------------7p5-7~-7p5-5-|
5-------------------------------7--|
-----------------------------------|
-----------------------------------|
(Guitar 1)

A A A A A A A A A A A A A A A
E|----------------------------------|
B|----------------------------------|
G|----------------------------------|
D|7-7-7--7-7-7--7-7-7--7-7-7--7-7-7-|
A|7-7-7--7-7-7--7-7-7--7-7-7--7-7-7-|
E|5-5-5--5-5-5--5-5-5--5-5-5--5-5-5-|
D d d d d d d d d d d d d d d
{...............pm..............}
(Guitar 2)

BRIDGE (2:14)
E|--------------------------------------------------------------------------|
B|--------------------------------------------------------------------------|
G|7^(9`7)-5-7~--------7^(9`7)-5-7~---------7^(9`7)-5-7~--------7^(9`7)-5-7~-|
D|----------------5h7-----------------5hh7-----------------5h7--------------|
A|--------------------------------------------------------------------------|
E|--------------------------------------------------------------------------|
I'm talkin' 'bout my brothers. Yea, and I'm talkin' 'bout my sisters as well
And I wish ya, Bye! Good Luck! Bye! Lord!

(Harmonica lead in E transcribed here)
(2:33)
E|-----------------------------------------------------------------------------|
B|15p14p12--12-12~------------------------------14-13-12^(14-14`12p0)----------|
G|--------14--------12h14---------------------15------12^(14-14`12p0)----------|
D|-----------------------14-14~-12-12-144-14~------------------------12-12h14~-|
A|-----------------------------------------------------------------------------|
E|-----------------------------------------------------------------------------|
{Harmonica}

--------------------------------|
--------------------------------|
--------------------------------|
--9-9-9---9-9-9---9-9-9---9-9-9-|
--7-7-7---7-7-7---7-7-7---7-7-7-|
0-0-----0-0-----0-0-----0-0-----|
{Guitar}

E|------------------------------------------------------------------|
B|------------------------------------------------------------------|
G|14^(16`14)-14p12-14^(16`14)-14p12-14^((16-16`14)-14p12-14^(16`14)-|
D|------------------------------------------------------------------|
A|------------------------------------------------------------------|
E|------------------------------------------------------------------|
{Harmonica}

--------------------------------|
--------------------------------|
--------------------------------|
--9-9-9---9-9-9---9-9-9---9-9-9-|
--7-7-7---7-7-7---7-7-7---7-7-7-|
0-0-----0-0-----0-0-----0-0-----|
{Guitar}

E|----------------------------------------|
B|15-14-12--15-14-12--15-14-12--15-14-122-|
G|----------------------------------------|
D|----------------------------------------|
A|----------------------------------------|
E|----------------------------------------|
{Harmonica}

--------------------------------|
--------------------------------|
--------------------------------|
--9-9-9---9-9-9---9-9-9---9-9-9-|
--7-7-7---7-7-7---7-7-7---7-7-7-|
0-0-----0-0-----0-0-----0-0-----|
{Guitar}

BRIDGE (2:50) C/C# C C/C# C
E|-----------------------------------------------------------------------------|
B|-----------------------------------------------------------------------------|
G|-----------------------------------------------------------------------------|
D|-------------------------------5/6-55~--------------------------------5/6-5~-|
A|1-----1-------1--1-----1-------3/4-33~-1------1------1--1-----1-------3/4-3~-|
E|-3p0-3--3p0-3~----3p0-3--3p0-3----------3p0-3--3p0-3~----3p0-3--3p0-3--------|

(2:59)
C D C C C A C D C C C A
E|-----------------------------------------------------------------------------|
B|-----------------------------------------------------------------------------|
G|-----------------------------------------------------------------------------|
D|-2-2p0--------5-7--2-2p0--------5-5-5-2--2-2p0-------5-7--2-2p0-------5-5-5-2|
A|0-----3p0-3p0-3-5-0-----3p0-3p0-3-3-3-0-0----3p0-3p0-3-5-0-----3p0-3p03-3-3-0|
E|-----------------------------------------------------------------------------|

C D C C C A C D C C A
E|---------------------

Log In to leave a comment

After registration we will return you to the same place
Comments
face-with-monocle
If you wait a bit, some comments may appear here...

Shhh...