Loading...
Black Sabbath logo

A Hard Road Black Sabbath

  • 0
  • Share
  • Transposing
    0
  • Font Size
A Hard Road
Black Sabbath - Never Say Die (1978)

|------------------------|------------------------|
|------------------------|------------------------|
|------------------------|------------------------|
|------------------------|------------------------|
|-2--2--2--2--2--2--2--2-|-2--2--2--2--2--2--2--2-|
|------------------------|------------------------|

|----------------------|----------------------------|
|--------------2--4-4--|--------2--4-4--------------|
|-------4p2----2--4-4--|-4p2----2--4-4--4p2---------|
|-----------4----------|-----4--------------4-------|
|-2--2-----------------|----------------------2--2--|
|----------------------|----------------------------|

Chorus:"oh its hard road..."
|-----------------------------------|
|-----------------------------------|
|-4--4--4-4--4-4--4-4--2--2--2-2-9--|
|-4--4--4-4--4-4--4-4--2--2--2-2-9--|
|-2--2--2-2--2-2--2-2--0--0--0-0-7--|
|--------------------------------0--|

|------------------------------------------------|
|---------------------------------2---4-4---4-4--|
|----------------------------4----2---4-4---4-4--|
|-4-4-/6-4---4--4-4-/6-4-4/6---4--2---4-4---4-4--|
|------------------------------2-----------------|
|------------------------------------------------|

|------------------------------------------------|
|---------------------------------2---4-4---4-4--|
|---------------------------------2---4-4---4-4--|
|-4-4-/6-4------4-4-/6-4--2-4--4--2---4-4---4-4--|
|------------------------------2-----------------|
|------------------------------------------------|

Solo:
|------------------------------------------------|
|-2-3-2-----------5-4-2---------------2-3-2------|
|-------4~~~~----------2---2-2-2~~~---------4~~--|
|------------------------4-----------------------|
|------------------------------------------------|
|------------------------------------------------|

|--7---7-----7---7----------------10--10----10--10--|
|-10^-10^---10^-10^---5-3-2-------13^-13^---13^-13^-|
|--------------------------2---2--------------------|
|----------------------------4----------------------|
|---------------------------------------------------|
|---------------------------------------------------|

|--7---7---7---7---------------------------------------|
|-10^-10^-10^-10^--------------------------------------|
|---------------------------------4-4---4-4---4-6^-6-4-|
|-----------------------------/4h6---4h6---4h6---------|
|------------------------------------------------------|
|--------------------7-5--5h7--------------------------|

b r r
|-------------------------------------------|
|----5-6-7----------------------------------|
|-6^-------4--6-4-6864-6---4-6p4-7^^^6-4-4--|
|------------------------6------------------|
|-------------------------------------------|
|-------------------------------------------|

|-----------7~~---------7~~---------------------|
|-------7-9-----------7-9---------------------------|
|-4-6/8------------/8-----------7^6^-4-4-6-8^6^-4-4-|
|---------------------------------------------------|
|---------------------------------------------------|
|---------------------------------------------------|

|-------------------------------------------------|
|-----7-----------7-----------7-----------7-------|
|-6/8---86-4-6/8---86-4-6/8---86-4-6/8---86-4-|
|-------------------------------------------------|
|-------------------------------------------------|
|-------------------------------------------------|

|------------------------------------------------------|
|-3/5-5^5^5^5^5^5^----5-5------5------3----------------|
|------------------6^-----6^-4---6^-4--4-2-------------|
|-----------------------------------------4-3-2-2------|
|----------------------------------------------5-5-4-2-|
|------------------------------------------------------|

Log In to leave a comment

After registration we will return you to the same place
Comments
face-with-monocle
If you wait a bit, some comments may appear here...

Shhh...

Versions

Most Popular
You Might Like