Biffy Clyro logo

With Aplomb Biffy Clyro

  • 0
  • Share
  • Transposing
    0
  • Font Size
Biffy Clyro – With Aplomb
Artist: Biffy Clyro
Track: With Aplomb
Album: The Vertigo Of Bliss
Tuning: Drop D (d a d g b e)

E--9--12--10--7--10----9-
B-10--14--12--8--12---10-
G------------------------
D------------------------
A------------------------
D------------------------

E--9--12--10--9--7-/-14---9--
B-10--14--12-10--8-/-15--10--
G----------------------------
D----------------------------
A----------------------------
D----------------------------

E-----------------------
B-----------------------
G--6-6h7-7-6-7-6-2-2h4-2
D-----------------------
A-----------------------
D-----------------------

E---------------------------------------
B---------------------------------------
G--6-7-6--2-4-2-/-6-7-6--2-4-2-/-6-7-6
D---------------------------------------
A---------------------------------------
D---------------------------------------

E-----------------------
B-----------------------
G--7-7-7----------------
D--7-7-7--12-12--12---
A--5-4-5--10--9--12---
D------5---------12---

E---------------------------------------------------------------------------
B---------------------------------------------------------------------------
G-6-6-6h7-7-6-7-6--2-4-2-/-6-7-6--2-4-2-/-6-7-6-/-14-16-14--6-7-6--2-4-2
D---------------------------------------------------------------------------
A---------------------------------------------------------------------------
D---------------------------------------------------------------------------

Violin plays main part here
E-5------
B-6------
G-7------
D-7------
A-5------
D-0------ just repeat over until end of violin

E----------------------
B-----10---------8-8---
G--------10-7/9--9-9---
D---0------------------
A----------------------
D----------------------

E---------
B-8-------
G--9------
D---10----
A-----0---
D--------- (all in one slow upstroke)

E-------------
B-8h10-8------
G--------9h10-
D-------------
A-------------
D-------------

E----------------------
B-----10---------8-8---
G--------10-7/9--9-9---
D---0------------------
A----------------------
D----------------------

E---------
B-8-------
G--9------
D---10----
A-----0---
D--------- (all in one slow upstroke)

E--------------------------------
B----------------------6-6-6-6---
G-10-10-10-12-10-9-10--7-7-7-7---
D-10-10-10-------------7-7-7-7---
A-8--8--8--------------5-5-5-5---
D--------------------------------

E-------------------------------------------------
B-------------------------------------------------
G-12-12-12-12-12-12-12-12-14-14-14-14-14-14-14-14-
D-12-12-12-12-12-12-12-12-14-14-14-14-14-14-14-14-
A-10-10-10-10-10-10-10-10-12-12-12-12-12-12-12-12-
D-------------------------------------------------

E-----------------------
B------------------6----
G-10-10-10-10-10---7----
D-10-10-10-10-10---7----
A-8--8--8--8--8----5----
D-----------------------

E--------------------------------
B----------------------6-6-6-6---
G-10-10-10-12-10-9-10--7-7-7-7---
D-10-10-10-------------7-7-7-7---
A-8--8--8--------------5-5-5-5---
D--------------------------------

E-------------------------------------------------
B-------------------------------------------------
G-12-12-12-12-12-12-12-12-14-14-14-14-14-14-14-14-
D-12-12-12-12-12-12-12-12-14-14-14-14-14-14-14-14-
A-10-10-10-10-10-10-10-10-12-12-12-12-12-12-12-12-
D-------------------------------------------------

E-----------------------
B------------------6----
G-10-10-10-10-10---7----
D-10-10-10-10-10---7----
A-8--8--8--8--8----5----
D-----------------------

E---------------------------
B---------------------------
G-12-10-9-10-10-10-10-10-10-
D------------10-10-10-10-10-
A------------8--8--8--8--8--
D---------------------------

Bass, tabbed out for guitar

E------8----
B-----------
G-9-10---10-
D-----------
A-----------
D-----------

E------------------
B--6-6-6-6-6-------
G--7-7-7-7-7-------
D--7-7-7-7-7-------
A--5-5-5-5-5-------
D------------------

E-------------------------------------------------
B-------------------------------------------------
G-12-12-12-12-12-12-12-12-14-14-14-14-14-14-14-14-
D--x--x--x--x--x--x--x--x--x--x--x--x--x--x--x--x-
A-10-10-10-10-10-10-10-10-12-12-12-12-12-12-12-12-
D-------------------------------------------------

E-----------------------
B------------------6----
G-10-10-10-10-10---7----
D-10-10-10-10-10---7----
A-8--8--8--8--8----5----
D-----------------------

E---------------------------
B---------------------------
G-12-10-9-10-10-10-10-10-10-
D------------10-10-10-10-10-
A------------8--8--8--8--8--
D---------------------------

Bass, tabbed out for guitar

E------8----
B-----------
G-9-10---10-
D-----------
A-----------
D-----------

E-----------------
B-6-6-6-6-6-------
G-7-7-7-7-7-------
D-7-7-7-7-7-------
A-5-5-5-5-5-------
D-----------------

E-------------------------------------------------
B-------------------------------------------------
G-12-12-12-12-12-12-12-12-14-14-14-14-14-14-14-14-
D--x--x--x--x--x--x--x--x--x--x--x--x--x--x--x--x-
A-10-10-10-10-10-10-10-10-12-12-12-12-12-12-12-12-
D-------------------------------------------------

E-----------------------
B------------------6----
G-10-10-10-10-10---7----
D-10-10-10-10-10---7----
A-8--8--8--8--8----5----
D-----------------------

E-----------------------
B-----------------------
G-15-15-15-15-15-17--10-
D-15-15-15-15-15-17--10-
A-13-13-13-13-13-15--8--
D-----------------------

E-----------------------
B-----------------------
G-15-15-15-15-15-17--10-
D-15-15-15-15-15-17--10-
A-13-13-13-13-13-15--8--
D-----------------------

E-----------------------
B-----------------------
G-15-15-15-15-15-17--10-
D-15-15-15-15-15-17--10-
A-13-13-13-13-13-15--8--
D-----------------------

E-----------------------
B-----------------------
G-15-15-15-15-15-17--10-
D-15-15-15-15-15-17--10-
A-13-13-13-13-13-15--8--
D-----------------------

E----------------------
B----------------------
G----15----------17-10-
D-------15----------10-
A-13-------13/15----8-- repeat till end
D----------------------

E-1-------------------- end on....
B-3--------------------
G-2--------------------
D-0--------------------
A----------------------
D----------------------

Cheers, MON THE BIFFY

Log In to leave a comment

After registration we will return you to the same place
Comments
face-with-monocle
If you wait a bit, some comments may appear here...

Shhh...