Biffy Clyro logo

All The Way Down Chapter 1 Biffy Clyro

  • 1
  • Share
  • Font Size
    15
Biffy Clyro – All The Way Down Chapter 1
Biffy clyro - all the way down prologue/chapter 1
By kev (kevsis@hotmail.com)
The prologue isnt too accurate but i hope
It can help people to finish the tab off

E----------------------------0-0-0-0-0-0-
B-1-1-1-1--1-1-1-1--1-1-1-1--5-5-5-5-5-5-
G-0-0-0-0--0-0-0-0--0-0-0-0--4-4-4-4-4-4-
D-2-2-2-2--3-3-3-3--2-2-2-2--------------
A-3-3-3-3--3-3-3-3--3-3-3-3--------------
E----------------------------------------

E-------------------------------------
B-1-1-1-1--1-1-1-1--1-1-1-1--1-1-1-1--
G-0-0-0-0--0-0-0-0--0-0-0-0--0-0-0-0--
D-2-2-2-2--3-3-3-3--2-2-2-2--3-3-3-3--
A-3-3-3-3--3-3-3-3--3-3-3-3--3-3-3-3--
D-------------------------------------

E---------------------------------------
B-1-1-1-1--1-1-1-1--1-1-1-1-1-0-0-1-0-0-
G-0-0-0-0--0-0-0-0--0-0-0-0-0-0-0-0-0-0-
D-2-2-2-2--3-3-3-3--2-2-2-2-3-3-3-3-3-3-
A-3-3-3-3--3-3-3-3--3-3-3-3-3-3-3-3-3-3-
D---------------------------------------

E----------------
B----------------
G-12--14--16--19-
D-10--12--14--17-
A-10--12--14--17-
D-10--12--14--17-

E-3-3-3-3--3-3-3-3--0-0-0-0-
B-3-3-3-3--1-1-1-1--1-1-1-1-
G-0-0-0-0--0-0-0-0--2-2-2-2-
D-0-0-0-0--2-2-2-2--2-2-2-2-
A-5-5-5-5--3-3-3-3--0-0-0-0-
D-5-5-5-5-------------------

E-3-3-3-3--3-3-3-3--0-0-0-0-
B-3-3-3-3--1-1-1-1--1-1-1-1-
G-0-0-0-0--0-0-0-0--2-2-2-2-
D-0-0-0-0--2-2-2-2--2-2-2-2-
A-5-5-5-5--3-3-3-3--0-0-0-0-
D-5-5-5-5-------------------

E-3-3-3-3--3-3-3-3--0-0-0-0-
B-3-3-3-3--1-1-1-1--1-1-1-1-
G-0-0-0-0--0-0-0-0--2-2-2-2-
D-0-0-0-0--2-2-2-2--2-2-2-2-
A-5-5-5-5--3-3-3-3--0-0-0-0-
D-5-5-5-5-------------------

E-------------------------------
B-------------------------------
G-------------------14-14-14-14-
D-12-12-12-12-12-12-12-12-12-12-
A-12-12-12-12-12-12-12-12-12-12-
D-12-12-12-12-12-12-12-12-12-12-

E---------------------
B-1-1-1-1--1-1-1-1--3-
G-0-0-0-0--0-0-0-0--2-
D-2-2-2-2--3-3-3-3--0-
A-3-3-3-3--3-3-3-3--0-
D-------------------0-

E--------------------------------
B-1-1-1-1--1-1-1-1--1-1-1-1-1-0--
G-0-0-0-0--0-0-0-0--0-0-0-0-0-0--
D-2-2-2-2--3-3-3-3--2-2-2-2-3-3--
A-3-3-3-3--3-3-3-3--3-3-3-3-3-3--
D--------------------------------

E-------------------------------------
B-1-1-1-1--1-1-1-1--1-1-1-1--1-1-1-1--
G-0-0-0-0--0-0-0-0--0-0-0-0--0-0-0-0--
D-2-2-2-2--3-3-3-3--2-2-2-2--3-3-3-3--
A-3-3-3-3--3-3-3-3--3-3-3-3--3-3-3-3--
D-------------------------------------

E---------------------------------------
B-1-1-1-1--1-1-1-1--1-1-1-1-1-0-0-1-0-0-
G-0-0-0-0--0-0-0-0--0-0-0-0-0-0-0-0-0-0-
D-2-2-2-2--3-3-3-3--2-2-2-2-3-3-3-3-3-3-
A-3-3-3-3--3-3-3-3--3-3-3-3-3-3-3-3-3-3-
D---------------------------------------

E----------------
B----------------
G-12--14--16--19-
D-10--12--14--17-
A-10--12--14--17-
D-10--12--14--17-

E-3-3-3-3--3-3-3-3--0-0-0-0-
B-3-3-3-3--1-1-1-1--1-1-1-1-
G-0-0-0-0--0-0-0-0--2-2-2-2-
D-0-0-0-0--2-2-2-2--2-2-2-2-
A-5-5-5-5--3-3-3-3--0-0-0-0-
D-5-5-5-5-------------------

E-3-3-3-3--3-3-3-3--0-0-0-0-
B-3-3-3-3--1-1-1-1--1-1-1-1-
G-0-0-0-0--0-0-0-0--2-2-2-2-
D-0-0-0-0--2-2-2-2--2-2-2-2-
A-5-5-5-5--3-3-3-3--0-0-0-0-
D-5-5-5-5-------------------

E-3-3-3-3--3-3-3-3--0-0-0-0-
B-3-3-3-3--1-1-1-1--1-1-1-1-
G-0-0-0-0--0-0-0-0--2-2-2-2-
D-0-0-0-0--2-2-2-2--2-2-2-2-
A-5-5-5-5--3-3-3-3--0-0-0-0-
D-5-5-5-5-------------------

E-------------------------------
B-------------------------------
G-------------------14-14-14-14-
D-12-12-12-12-12-12-12-12-12-12-
A-12-12-12-12-12-12-12-12-12-12-
D-12-12-12-12-12-12-12-12-12-12-

E-------------------------------------
B-------------------------------------
G-11-11-11-11-11-11-11-11-11-14-14-14-
D-9--9--9--9--9--9--9--9--9--12-12-12-
A-9--9--9--9--9--9--9--9--9--12-12-12-
D-9--9--9--9--9--9--9--9--9--12-12-12-

E-----------------------------
B-----------------------------
G-7-7-7-6-6-6-5-5-5--14-14-14-
D-5-5-5-5-5-5-5-5-5--12-12-12-
A-5-5-5-5-5-5-5-5-5--12-12-12-
D-5-5-5-5-5-5-5-5-5--12-12-12-

E-------------------------------------
B-------------------------------------
G-11-11-11-11-11-11-11-11-11-14-14-14-
D-9--9--9--9--9--9--9--9--9--12-12-12-
A-9--9--9--9--9--9--9--9--9--12-12-12-
D-9--9--9--9--9--9--9--9--9--12-12-12-

E-----------------------------
B-----------------------------
G-7-7-7-6-6-6-5-5-5--14-14-14-
D-5-5-5-5-5-5-5-5-5--12-12-12-
A-5-5-5-5-5-5-5-5-5--12-12-12-
D-5-5-5-5-5-5-5-5-5--12-12-12-

E-------------------------------------
B-------------------------------------
G-11-11-11-11-11-11-11-11-11-14-14-14-
D-9--9--9--9--9--9--9--9--9--12-12-12-
A-9--9--9--9--9--9--9--9--9--12-12-12-
D-9--9--9--9--9--9--9--9--9--12-12-12-

E-----------------------------
B-----------------------------
G-7-7-7-6-6-6-5-5-5--14-14-14-
D-5-5-5-5-5-5-5-5-5--12-12-12-
A-5-5-5-5-5-5-5-5-5--12-12-12-
D-5-5-5-5-5-5-5-5-5--12-12-12-

E-------------------------------------
B-------------------------------------
G-11-11-11-11-11-11-11-11-11-14-14-14-
D-9--9--9--9--9--9--9--9--9--12-12-12-
A-9--9--9--9--9--9--9--9--9--12-12-12-
D-9--9--9--9--9--9--9--9--9--12-12-12-

E-----------------------------
B-----------------------------
G-7-7-7-6-6-6-5-5-5--14-14-14-
D-5-5-5-5-5-5-5-5-5--12-12-12-
A-5-5-5-5-5-5-5-5-5--12-12-12-
D-5-5-5-5-5-5-5-5-5--12-12-12-

E-------------------------------
B-------------------------------
G-----14---------14------14-----
D-0-0----0--0-12----12-14--14---
A-------------------------------
D-------------------------------

E-----------------------------------
B-----------------------------------
G-----14---------14-------11-12-14--
D-0-0----0--0-12----12-14-----------
A-----------------------------------
D-----------------------------------

E-------------------------------
B-------------------------------
G-----14---------14------14-----
D-0-0----0--0-12----12-14--14---
A-------------------------------
D-------------------------------

E-----------------------------------
B-----------------------------------
G-----14---------14-------11-12-14--
D-0-0----0--0-12----12-14-----------
A-----------------------------------
D-----------------------------------

E-------------------------------
B-------------------------------
G-----14---------14------14-----
D-0-0----0--0-12----12-14--14---
A-------------------------------
D-------------------------------

E-----------------------------------
B-----------------------------------
G-----14---------14-------11-12-14--
D-0-0----0--0-12----12-14-----------
A-----------------------------------
D-----------------------------------

E-------------------------------
B-------------------------------
G-----14---------14------14-----
D-0-0----0--0-12----12-14--14---
A-------------------------------
D-------------------------------

E-----------------------------------
B-----------------------------------
G-----14---------14-------11-12-14--
D-0-0----0--0-12----12-14-----------
A-----------------------------------
D-----------------------------------

E---------------------------
B---------------------------
G--12--11------12-----------
D----------12---------------
A---------------------------
D---------------------------

Think this is the bass bit
E---------------------------
B---------------------------
G---------------------------
D---------------------------
A---------------------------
D-0---------5------0------5-

E---------------------------
B---------------------------
G-6-6-6-6-6-----7-----------
D-7-7-7-7-7-----7-----------
A-4-4-4-4-4-----5-----------
D---------------0-----------

E---------------------------
B---------------------------
G-6-6-6-6-6-----7-----------
D-7-7-7-7-7-----7-----------
A-4-4-4-4-4-----5-----------
D---------------0-----------

E---------------------------
B---------------------------
G-6-6-6-6-6-----7-----------
D-7-7-7-7-7-----7-----------
A-4-4-4-4-4-----5-----------
D---------------0-----------

E---------------------------
B---------------------------
G-6-6-6-6-6-----7-----------
D-7-7-7-7-7-----7-----------
A-4-4-4-4-4-----5-----------
D---------------0-----------

E------------------------------
B---7-7-----7-7----7-7----7-7--
G----7-7-----7-7----7-7----7-7-
D------------------------------
A------------------------------
D-0-------0------0------0------

E------------------------------
B---7-7-----7-7----7-7----7-7--
G----7-7-----7-7----7-7----7-7-
D------------------------------
A------------------------------
D-5-------5------5------5------

E------------------------------
B---7-7-----7-7----7-7----7-7--
G----7-7-----7-7----7-7----7-7-
D------------------------------
A------------------------------
D-0-------0------0------0------

E------------------------------
B---7-7-----7-7----7-7----7-7--
G----7-7-----7-7----7-7----7-7-
D------------------------------
A------------------------------
D-5-------5------5------5------

E------------------------------
B---7-7-----7-7----7-7----7-7--
G----7-7-----7-7----7-7----7-7-
D------------------------------
A------------------------------
D-0-------0------0------0------

E------------------------------
B---7-7-----7-7----7-7----7-7--
G----7-7-----7-7----7-7----7-7-
D------------------------------
A------------------------------
D-5-------5------5------5------

E---------------------------
B---------------------------
G-6-6-6-6-6-----7-----------
D-7-7-7-7-7-----7-----------
A-4-4-4-4-4-----5-----------
D---------------0-----------

E---------------------------
B---------------------------
G-6-6-6-6-6-----7-----------
D-7-7-7-7-7-----7-----------
A-4-4-4-4-4-----5-----------
D---------------0-----------

E---------------------------
B---------------------------
G-6-6-6-6-6-----7-----------
D-7-7-7-7-7-----7-----------
A-4-4-4-4-4-----5-----------
D---------------0-----------

E-------------------------------
B-------------------------------
G-6-6-6-6-6-----7-7-7-7-7-7-7-7-
D-7-7-7-7-7-----7-7-7-7-7-7-7-7-
A-4-4-4-4-4-----5-5-5-5-5-5-5-5-
D---------------0-0-0-0-0-0-0-0-

E---------------------------------
B---------------------------------
G-7-7-7-7-7-7-7-7-7-7-7-7-7-7-7-7-
D-7-7-7-7-7-7-7-7-7-7-7-7-7-7-7-7-
A-5-5-5-5-5-5-5-5-5-5-5-5-5-5-5-5-
D-0-0-0-0-0-0-0-0-0-0-0-0-0-0-0-0-

E---------------------------------
B---------------------------------
G-7-7-7-7-7-7-7-7-7-7-7-7-7-7-7-7-
D-5-5-5-5-5-5-5-5-5-5-5-5-5-5-5-5-
A-5-5-5-5-5-5-5-5-5-5-5-5-5-5-5-5-
D-5-5-5-5-5-5-5-5-5-5-5-5-5-5-5-5-

E---------------------------------
B---------------------------------
G-7-7-7-7-7-7-7-7-7-7-7-7-7-7-7-7-
D-7-7-7-7-7-7-7-7-7-7-7-7-7-7-7-7-
A-5-5-5-5-5-5-5-5-5-5-5-5-5-5-5-5-
D-0-0-0-0-0-0-0-0-0-0-0-0-0-0-0-0-

E---------------------------------
B---------------------------------
G-7-7-7-7-7-7-7-7-7-7-7-7-7-7-7-7-
D-5-5-5-5-5-5-5-5-5-5-5-5-5-5-5-5-
A-5-5-5-5-5-5-5-5-5-5-5-5-5-5-5-5-
D-5-5-5-5-5-5-5-5-5-5-5-5-5-5-5-5-

E-------------------------------------
B-------------------------------------
G-6-6-6-6-6-----6-7-7-7-7-6-7-7-6-6-6-
D-7-7-7-7-7-----7-7-7-7-7-7-7-7-7-7-7-
A-4-4-4-4-4-----5-5-5-5-5-5-5-5-5-5-5-
D---------------0-0-0-0-0-0-0-0-0-0-0-

E-------------------------------------
B-------------------------------------
G-6-6-6-6-6-----6-7-7-7-7-6-7-7-6-6-6-
D-7-7-7-7-7-----7-7-7-7-7-7-7-7-7-7-7-
A-4-4-4-4-4-----5-5-5-5-5-5-5-5-5-5-5-
D---------------0-0-0-0-0-0-0-0-0-0-0-

E-------------------------------------
B-------------------------------------
G-6-6-6-6-6-----6-7-7-7-7-6-7-7-6-6-6-
D-7-7-7-7-7-----7-7-7-7-7-7-7-7-7-7-7-
A-4-4-4-4-4-----5-5-5-5-5-5-5-5-5-5-5-
D---------------0-0-0-0-0-0-0-0-0-0-0-

E-------------------------------------
B-------------------------------------
G-6-6-6-6-6-----6-7-7-7-7-6-7-7-6-6-6-
D-7-7-7-7-7-----7-7-7-7-7-7-7-7-7-7-7-
A-4-4-4-4-4-----5-5-5-5-5-5-5-5-5-5-5-
D---------------0-0-0-0-0-0-0-0-0-0-0-

Stop! best bit on the whole album...

E---------------------------------
B---------------------------------
G-2-2-2-2-2-2-2-2-2-2-2-2-2-2-2-2-
D-0-0-0-0-0-0-0-0-0-0-0-0-0-0-0-0-
A-0-0-0-0-0-0-0-0-0-0-0-0-0-0-0-0-
D-0-0-0-0-0-0-0-0-0-0-0-0-0-0-0-0-

E---------------------------------
B---------------------------------
G-7-7-7-7-7-7-7-7-7-7-7-7-7-7-7-7-
D-5-5-5-5-5-5-5-5-5-5-5-5-5-5-5-5-
A-5-5-5-5-5-5-5-5-5-5-5-5-5-5-5-5-
D-5-5-5-5-5-5-5-5-5-5-5-5-5-5-5-5-

E---------------------------------
B---------------------------------
G-9-9-9-9-9-9-9-9-9-9-9-9-9-9-9-9-
D-0-0-0-0-0-0-0-0-0-0-0-0-0-0-0-0-
A-x-x-x-x-x-x-x-x-x-x-x-x-x-x-x-x-
D-9-9-9-9-9-9-9-9-9-9-9-9-9-9-9-9-

E-------------------------------------------------
B-------------------------------------------------
G-14-14-14-14-14-14-14-14-14-14-14-14-14-14-14-14-
D-12-12-12-12-12-12-12-12-12-12-12-12-12-12-12-12-
A-12-12-12-12-12-12-12-12-12-12-12-12-12-12-12-12-
D-12-12-12-12-12-12-12-12-12-12-12-12-12-12-12-12-

E---------------------------------
B---------------------------------
G-2-2-2-2-2-2-2-2-2-2-2-2-2-2-2-2-
D-0-0-0-0-0-0-0-0-0-0-0-0-0-0-0-0-
A-0-0-0-0-0-0-0-0-0-0-0-0-0-0-0-0-
D-0-0-0-0-0-0-0-0-0-0-0-0-0-0-0-0-

E---------------------------------
B---------------------------------
G-7-7-7-7-7-7-7-7-7-7-7-7-7-7-7-7-
D-5-5-5-5-5-5-5-5-5-5-5-5-5-5-5-5-
A-5-5-5-5-5-5-5-5-5-5-5-5-5-5-5-5-
D-5-5-5-5-5-5-5-5-5-5-5-5-5-5-5-5-

E---------------------------------
B---------------------------------
G-9-9-9-9-9-9-9-9-9-9-9-9-9-9-9-9-
D-0-0-0-0-0-0-0-0-0-0-0-0-0-0-0-0-
A-x-x-x-x-x-x-x-x-x-x-x-x-x-x-x-x-
D-9-9-9-9-9-9-9-9-9-9-9-9-9-9-9-9-

E-------------------------------------------------
B-------------------------------------------------
G-14-14-14-14-14-14-14-14-14-14-14-14-14-14-14-14-
D-12-12-12-12-12-12-12-12-12-12-12-12-12-12-12-12-
A-12-12-12-12-12-12-12-12-12-12-12-12-12-12-12-12-
D-12-12-12-12-12-12-12-12-12-12-12-12-12-12-12-12-

E---------------------------------
B---------------------------------
G-2-2-2-2-2-2-2-2-2-2-2-2-2-2-2-2-
D-0-0-0-0-0-0-0-0-0-0-0-0-0-0-0-0-
A-0-0-0-0-0-0-0-0-0-0-0-0-0-0-0-0-
D-0-0-0-0-0-0-0-0-0-0-0-0-0-0-0-0-

E---------------------------------
B---------------------------------
G-7-7-7-7-7-7-7-7-7-7-7-7-7-7-7-7-
D-5-5-5-5-5-5-5-5-5-5-5-5-5-5-5-5-
A-5-5-5-5-5-5-5-5-5-5-5-5-5-5-5-5-
D-5-5-5-5-5-5-5-5-5-5-5-5-5-5-5-5-

E---------------------------------
B---------------------------------
G-9-9-9-9-9-9-9-9-9-9-9-9-9-9-9-9-
D-0-0-0-0-0-0-0-0-0-0-0-0-0-0-0-0-
A-x-x-x-x-x-x-x-x-x-x-x-x-x-x-x-x-
D-9-9-9-9-9-9-9-9-9-9-9-9-9-9-9-9-

E-------------------------------------------------
B-------------------------------------------------
G-14-14-14-14-14-14-14-14-14-14-14-14-14-14-14-14-
D-12-12-12-12-12-12-12-12-12-12-12-12-12-12-12-12-
A-12-12-12-12-12-12-12-12-12-12-12-12-12-12-12-12-
D-12-12-12-12-12-12-12-12-12-12-12-12-12-12-12-12-

Ok, im sorry bout the bad ending here but
Im too tired to do the last bit, just use the

E-------------------------------------
B-------------------------------------
G-6-6-6-6-6-----6-7-7-7-7-6-7-7-6-6-6-
D-7-7-7-7-7-----7-7-7-7-7-7-7-7-7-7-7-
A-4-4-4-4-4-----5-5-5-5-5-5-5-5-5-5-5-
D---------------0-0-0-0-0-0-0-0-0-0-0-

Bit and mess around with it.

Log In to leave a comment

After registration we will return you to the same place
Comments
face-with-monocle
If you wait a bit, some comments may appear here...

Shhh...