Berry Chuck logo

You Can Never Tell Berry Chuck

  • 0
  • Share
  • Font Size
Berry Chuck – You Can Never Tell
Intro
E|-------------12--12--11--10--------8-8-|
B|-------------------------------3s5---5-|
G|---------9s12--12--11--10--------------|
D|---------------------------------------|
A|---------------------------------------|
E|---------------------------------------|

Solo
E|--------7-8------7--------------------|
B|---8-10-------10-----8-10-----8-------|
G|----------------------------9-------9-|
D|---------------------------------10---|
A|--------------------------------------|
E|--------------------------------------|

E|--------7-8------7--------------------|
B|---8-10-------10-----8-10-----8---7-6-|
G|----------------------------9---------|
D|--------------------------------------|
A|--------------------------------------|
E|--------------------------------------|

E|--------------------------------------|
B|---8-10-11-12---8-10-----8-----8--7-6-|
G|-----------------------9-----7--------|
D|--------------------------------------|
A|--------------------------------------|
E|--------------------------------------|

E|--------------------------------------|
B|---8-10-11-12---8-10----8-------------|
G|----------------------9----7-10--7----|
D|-----------------------------------10-|
A|--------------------------------------|
E|--------------------------------------|

Log In to leave a comment

After registration we will return you to the same place
Comments
face-with-monocle
If you wait a bit, some comments may appear here...

Shhh...