Berry Chuck logo

Mabeline Berry Chuck

  • 0
  • Share
  • Font Size
    15
Berry Chuck – Mabeline
Intro:
E|--------------------------|
B|--------------------------|
G|----------10-10---10b-10b-|
D|------8---10-10-8-10b-10b-|
A|-8-10---------------------|
E|--------------------------|

Verses:
E|-----------|
B|-----------|
G|-----------|
D|-----------|
A|-8-10-8-10-|
E|-6-6--6-6--| listen to the song to see how many times

E|-----------|
B|-----------|
G|-----------|
D|-8-10-8-10-|
A|-6-6--6-6--|
E|-----------| listen to the song to see how many times

E|-----------|
B|-----------|
G|-----------|
D|-----------|
A|-8-10-8-10-|
E|-6-6--6-6--| back to this...listen to the song to see how many times

E|-------------|
B|-------------|
G|-------------|
D|-10-12-10-12-|
A|-8--8--8--8--|
E|-------------| listen to the song to see how many times

E|-----------|
B|-----------|
G|-----------|
D|-----------|
A|-8-10-8-10-|
E|-6-6--6-6--| again back to this...listen to the song to see how many times

Log In to leave a comment

After registration we will return you to the same place
Comments
face-with-monocle
If you wait a bit, some comments may appear here...

Shhh...