Berlin Mitte logo

Battlefield Berlin Mitte

  • 8
  • Share
  • Transposing
    0
  • Font Size
    15
Berlin Mitte – Battlefield
Intro:

E|------7-------5-------3-------5----|
B|----8---X---7---X---5---X---5------|
G|--9-------7-------5-------5--------|
D|-----------------------------------|
A|-----------------------------------|
E|-----------------------------------|

Verse:

Em     B    C             Am
   A broken heart sticks on the lungs beside her

Em     B        C        Am
   she knows i'm dying in the battlefield

Em      B    C            Am
   I once was known for being the bravest fighter

Em     B     C          Am       Em
   but now I know this is my first defeat

Bridge:

(Em)   B    D
  (yeah yeah yeah)

E|-----------|
B|-----------|
G|-----------|
D|-----------|
A|-----------|
E|--0--2--3--|

Chorus:

Em          C         G          D
  it's not over, it's not too late

Em           C         G        D
  I won't give up till I suffocate

Em          C
  but it's beating,

     B           Em      D  C
It's cruel and it's killing me

B
  love is a battlefield

Em    B   C    Am
  (yeah yeah yeah)

Verse:

Em B C Am

We watched the dreams turn into wishful thinking
Along the road to my insanity
I call it cure you call it manic thinking
Is this the reason for my mad disease

Bridge:

(Em)   B    D
  (yeah yeah yeah)

E|-----------|
B|-----------|
G|-----------|
D|-----------|
A|-----------|
E|--0--2--3--|

Chorus:

Em          C         G          D
  it's not over, it's not too late

Em           C         G        D
  I won't give up till I suffocate

Em          C
  but it's beating,

     B           Em      D  C
It's cruel and it's killing me

Special Part:

(C)   Am    B
  (yeah yeah yeah)

(B)         Em
  love is a battlefield

C    Am   B
  (yeah yeah yeah)

E|--------------|
B|--------------|
G|-----4--------|
D|--2--------4--|
A|--------2-----|
E|--------------|

C   Am   B
(yeah yeah yeah)

Chorus:   (Acoustic)

Em          C         G          D
  it's not over, it's not too late

Em           C         G        D
  I won't give up till I suffocate

Em          C
  but it's beating,

     B           Em      D  C
It's cruel and it's killing me

Log In to leave a comment

After registration we will return you to the same place
Comments
face-with-monocle
If you wait a bit, some comments may appear here...

Shhh...